Lost My Pieces (Toradora!) Ukulele Tab

Submitted: Mar 22, 2015 by CandyCane52

3
Average: 3 (2 votes)
Download | Listen
Game: Toradora!
Composer(s): Yukari Hashimoto
Style: Transcription

AutoScroll: Slow | Medium | Fast
Lost My Pieces
Toradora! (Anime)
Hashimoto Yukari
CandyCane52
21/03/2015

 :00
G---------------------------------------------------------------
C-----------------------------------2--2------------------------
E----3--2-------------------3-2-3--------2-3-5--2-5-------------
A-5--------5--7--2--2-3-2-0-------0-----------------5--0--2-1-2-
 :25
G---------------------------------------------------------
C-------2------------7------------------------------------
E-0-2-3----0-2-3-5-7--------------------------------------
A----------------------7--0--2-3-5-7-5-10-9-5-0-7-5--0--3-
 :42
G---------------------------------------------------------------
C-----------------------2---------------------------------------
E-----------3-5-8-7--3----------------------------------------2-
A-2-3-2-7-5----------------5-7-5-10-9-5-0-7-5-10-12-15-14-5-0---
 1:01
G-----------------------------------------------------------
C-----------------------------------------2------0----------
E-2-3------3-2---------3----------3-2-3------2-3----2-------
A--------5-----5--7-2--2--2-3-2-0-------0--------0-----0--5-
 1:18
G--------------------------------------------------------------------
C---------------------------------------------------------0----------
E----------------------------------------------2-0---3-2----3-5------
A-0--2-1-2--2-3-5-7-5-10-9-5-0-7-5--0-3-10-5-0------------------5--2-
 1:42
G-------------------------------------------------------------
C-------------------------------------------------------------
E--------8----------------------------------------------------
A-9--10----10-12-17-------------------------------------------
Login or Register to remove this ad.