Ads

Top Gear Theme (Top Gear) Guitar Tab

Submitted: Aug 07, 2022 by Omnicide (Last updated: Aug 08, 2022)

5
Average: 5 (1 vote)
Download | Listen
Game: Top Gear
Composer(s): Barry Leitch, Hiroyuki Masuno
Style: Arrangement, Fingerstyle

This song is also called Las Vegas, Mad Racer, Track 1

AutoScroll: Slow | Medium | Fast
Top Gear Theme (Las Vegas)                            
Top Gear
Composed by Barry Leitch
Arranged by William Geesdorf


Standard Tuning 
(Capo 1)


Playing instructions: Play to the end of the measure marked D.S. al Coda. 
Go back to the measure marked "Segno" and play down to the end of the measure marked Da
Coda, then skip to the section marked "Coda" and play to the end.


     E  E  E  E  E  E  E  E     E  E  E  E  E  E  E  E   
E||--------------2-----------|--------------5-----------|
B||-----------3-----3--------|-----------7-----7--------|
G||--------4-----------4-----|--------7-----------7-----|
D||-----4-----------------4--|-----7-----------------7--|
A||--2-----------------------|--5-----------------------|
E||--------------------------|--------------------------|


  E  E  E  E  E  E  E  E     E  E  E  E  E  E  E  E     E  E  Q    Q    E  E   
--------------5-----------|--------------2-----------|--2--2---------------2--|
-----------5-----5--------|-----------3-----3--------|--------3---------3-----|
--------6-----------6-----|--------4-----------4-----|-------------4----------|
-----7-----------------7--|-----4-----------------4--|------------------------|
--------------------------|--2-----------------------|--2---------------------|
--5-----------------------|--------------------------|------------------------|


  E  E  Q    H           E  E  Q    Q    E  E     E  E  E  E  E  E  E  E   
-----2----------------|--0--0------------------|--------------2-----------|
--------3-------------|--------2---------------|-----------3-----3--------|
-------------2--------|-------------2-------4--|--------4-----------4-----|
--0-------------------|------------------4-----|-----4-----------------4--|
----------------------|--0---------------------|--2-----------------------|
----------------------|------------------------|--------------------------|


  E  S E  S E  S E  S E  E     E  S E  S E  S E  S E  E   
--2----2----2----2----3--2--|--2----2----2----2----3--2--|
-----3----3----3----3-------|-----3----3----3----3-------|
----------------------------|----------------------------|
----------------------------|--0-------------------------|
--2-------------------------|----------------------------|
----------------------------|----------------------------|


  E  S E  S E  S E  S E  E     E  S E  S E  S E  S E  E   
--0----0----0----0----2--0--|--2----2----2----2----3--2--|
-----2----2----2----2-------|-----3----3----3----3-------|
----------------------------|----------------------------|
----------------------------|----------------------------|
--0-------------------------|--2-------------------------|
----------------------------|----------------------------|

"Segno"
  E  S E  S E  S E  S E  E     E  S E  S E  S E  S E  E   
--2----2----2----2----3--2--|--2----2----2----2----3--2--|
-----3----3---------3-------|-----3----3---------3-------|
----------------------------|----------------------------|
----------------------------|--0------------0------------|
--2------------2------------|----------------------------|
----------------------------|----------------------------|


  E  S E  S E  S E  S E  E     Q    Q    Q    Q     
--0----0----0----0----2--0--|--2-------------------|
-----2----2---------2-------|-------3--------------|
----------------------------|------------4---------|
----------------------------|-----------------4----|
--0------------0------------|--2---------2---------|
----------------------------|----------------------|


    E  E  S  E  S S  S  E  E  E     E  E  E  S S H         
|--------------------------------|------------------------|
|---------------3---(3)-2--------|--3-----3---------------|
|*--4-----2h-4-------------4--2--|-----2-------2----------|
|*-----4-------------------------|--0--------4---0--------|
|---2-------------2--------------|------------------------|
|--------------------------------|------------------------|


  E  E  E  S  S E  E  E  E     E  E  E   S S H           
--0-----0--2h-3----2--0-----|--2-----------------------||
-----2-------------------3--|-----3--2h--3-0-----------||
----------------------------|-------------------------*||
----------------------------|-------------------------*||
--0-------------0-----------|--2-------------2---------||
----------------------------|--------------------------||


  E  E  E  E  E  E  S  S E     E  E  E  E  E  E  S  S E   
----------------------------|-----------0-------------0--|
-----------3-----2--0h-2----|-----------------3--2h-3----|
--0----------------------0--|--2-----2-------------------|
--------0-------------------|-----2----------------------|
-----2----------------------|--0-----------0-------------|
--3-----------3-------------|----------------------------|


  E  E  E  E  E  E  S  S E     E  E  E  E  E  E  E  E   
-----------3-----2--0h-2----|--------------0-----------|
--0----------------------3--|--2--2--2--3-----3--2-----|
--------0-------------------|-----------------------2--|
-----0----------------------|--------------------------|
----------------------------|--0-----------0-----------|
--3-----------3-------------|--------------------------|


    E  E  S  E  S S  S  E  E  E     E  E  E  S S H         
|--------------------------------|------------------------|
|---------------3---(3)-2--------|--3-----3---------------|
|*--4-----2h-4-------------4--2--|-----2-------2----------|
|*-----4-------------------------|--0--------4---0--------|
|---2-------------2--------------|------------------------|
|--------------------------------|------------------------|


  E  E  E  S  S E  E  E  E     E  E  E   S S H             H        Q    Q     
--0-----0--2h-3----2--0-----|--2-----------------------||---------------------|
-----2-------------------3--|-----3--2h--3-0-----------||----------------3----|
----------------------------|-------------------------*||--0------------------|
----------------------------|-------------------------*||--0------------------|
--0-------------0-----------|--2-------------2---------||---------------------|
----------------------------|--------------------------||--3--------3---------|


  H        Q    Q       H        Q    Q       E  S E  S E  S E  S E  E   
---------------------|---------------------|--0----0----0----0----2--0--|
----------------3----|----------------3----|-----2----2---------2-------|
--2------------------|--0------------------|----------------------------|
--2------------------|--0------------------|----------------------------|
--0--------0---------|---------------------|--0------------0------------|
---------------------|--3--------3---------|----------------------------|


  E  S E  S E  S E  S E  E     E  S E  S E  S E  S E  E   
--2----2----2----2----3--2--|--2----2----2----2----3--2--|
-----3----3---------3-------|-----3----3---------3-------|
----------------------------|----------------------------|
----------------------------|--0------------0------------|
--2------------2------------|----------------------------|
----------------------------|----------------------------|

                                            Da Coda
  E  S E  S E  S E  S E  E     Q    Q    Q    Q       Q.     E  Q    Q     
--0----0----0----0----2--0--|--2-------------------|----------------------|
-----2----2---------2-------|-------3----2----3----|----------------------|
----------------------------|----------------------|--4------2------------|
----------------------------|----------------------|-----------------4----|
--0------------0------------|--2---------2---------|--2---------2---------|
----------------------------|----------------------|----------------------|


  H        H           Q.     E  Q    Q       H        H         
--------------------|----------------------|--------------------|
-----------0--------|--2------0------------|--------------------|
--2-----------------|-----------------2----|--4-----------------|
--0--------0--------|----------------------|--------------------|
--------------------|--0---------0---------|--2--------2--------|
--------------------|----------------------|--------------------|


  Q.     E  Q    Q       H        H           Q.     E  Q    Q     
----------------------|--------------------|----------------------|
----------------------|--------------------|----------------------|
--4------2------------|--2-----------------|--2-------------------|
-----------------4----|--0--------4--------|---------2-------0----|
--2---------2---------|-----------5--------|--0---------0---------|
----------------------|--------------------|----------------------|


  H        H           E  E  E  E  E  E  E  E     E  E  E  E  E  E  E  E   
--------------------|--------------2-----------|--------------5-----------|
--------------------|-----------3-----3--------|-----------7-----7--------|
--------------------|--------4-----------4-----|--------7-----------7-----|
--------------------|-----4-----------------4--|-----7-----------------7--|
--2--------2--------|--2-----------2-----------|--5-----------5-----------|
--------------------|--------------------------|--------------------------|

                                                      "Coda"
                                         D.S. al Coda   ^                   
  E  E  E  E  E  E  E  E     E  E  E  E  E  E  E  E     Q.     Q.     Q     
--------------5-----------|--------------2-----------|---------------------|
-----------5-----5--------|-----------3-----3--------|---------------------|
--------6-----------6-----|--------4-----------4-----|--4------2-----------|
-----7-----------------7--|-----4-----------------4--|--4-------------4----|
--------------------------|--2-----------2-----------|--2------------------|
--5-----------5-----------|--------------------------|---------------------|


  ^                    ^                     ^                 
  H        H           Q.     Q.     Q       W                 
--------------------|---------------------|-------------------|
-----------0--------|--2------0-----------|-------------------|
--2-----------------|--2-------------2----|--4----------------|
--0-----------------|--2------------------|--4----------------|
--------------------|--0------------------|--2----------------|
--------------------|---------------------|-------------------|


  ^                     ^                    ^                   
  Q.     Q.     Q       H        H           Q.     Q.     Q     
---------------------|--------------------|---------------------|
---------------------|--------------------|---------------------|
--4------2-----------|--2-----------------|--2------------------|
--4-------------4----|--0--------4--------|--2------2------0----|
--2------------------|--------------------|--0------------------|
---------------------|--------------------|---------------------|


                      ^                                      
  W                   W                   W                  
-------------------|--2----------------|--L----------------||
-------------------|--3----------------|--L----------------||
-------------------|--4----------------|--L----------------||
-------------------|--4----------------|--L----------------||
--2----------------|--2----------------|--L----------------||
-------------------|-------------------|-------------------||




Duration Legend
---------------
W - whole
H - half
Q - quarter
E - 8th
S - 16th
T - 32nd
X - 64th
. - note dotted
|-n-|  - n-tuplets


Tablature Legend
----------------
L - tied note
(n) - ghost note (optional)
h - hammer on
^ - brush up
Login or Register to remove this ad.