Ads

Mii Apartments (Tomodachi Collection) Guitar Tab

Submitted: Jul 03, 2015 by Nintenscription

0
Download | Listen
Game: Tomodachi Collection
Composer(s): Daisuke Shiiba, Asuka Ito
Style: 2 or more instruments, Transcription

AutoScroll: Slow | Medium | Fast
Title: Mii Apartments
Game: Tomodachi Collection OST
Composer: Daisuke Shiiba
Tabber: Nintenscription
Tempo = 102


I. Chords


E |----------------------------|----------------------------|
B |--------11-------9-----9----|--------11-------9-----9----|
G |-----8--------10------------|-----8--------8-------------|
D |--11-------10-------10------|--11-------10-------10------|
A |----------------------------|----------------------------|
E |----------------------------|----------------------------|


----------------------------|----------------------------|
--------9--------9-----7----|-----7--------7-----7--9----|
-----7--------6-------------|--------10-------10-8-------|
--9--------8--------8-------|--7--------6--------9-------|
----------------------------|----------------------------|
----------------------------|--------------------9-------|


--------18-------16----16---|--------18-------16----16---|
-----16-------18------------|-----16-------16------------|
--18-------17-------17------|--18-------17-------17------|
----------------------------|----------------------------|
----------------------------|----------------------------|
----------------------------|----------------------------|


--------16-------16----14---|-----14-------14----14-16---|
-----15-------14------------|--------18-------18---------|
--16-------15-------15------|--14-------13---------------|
----------------------------|----------------------------|
----------------------------|----------------------------|
----------------------------|----------------------------|


-----------9----------------|-----------13---------------|
--------11------------------|--------14------------------|
-----11---------------------|-----14---------------------|
--13------------------------|--16------------------------|
----------------------------|----------------------------|
----------------------------|----------------------------|


-----------8----------------|----------------------------|
--------9-------------------|-----------12---------------|
-----12---------------------|--------13------------------|
--15------------------------|-----12---------------------|
----------------------------|--13------------------------|
----------------------------|----------------------------|


-----------13---------------|-----------18---------------|
--------14------------------|--------16------------------|
-----11---------------------|-----18---------------------|
--13------------------------|--18------------------------|
----------------------------|----------------------------|
----------------------------|----------------------------|


-----------16----------13---|-----------14-------14-18---||
--------16----------13------|--------14-------13---------||
-----17----------13---------|-----15---------------------||
--15------------------------|--13------------------------||
--------------13------------|--------------11------------||
----------------------------|----------------------------||


II. Chords (Accents)


E |----|----|----|----|----|----|----|----------------------------|----|----|
B |----|----|----|----|----|----|----|----------------------------|----|----|
G |----|----|----|----|----|----|----|--8--------7--------10------|----|----|
D |----|----|----|----|----|----|----|--7--------6--------9-------|----|----|
A |----|----|----|----|----|----|----|--8--------8--------11------|----|----|
E |----|----|----|----|----|----|----|----------------------------|----|----|


-----------------16----18---|--19------------------------|----|----|----|----||
-----------------18----19---|--21------------------------|----|----|----|----||
----------------------------|----------------------------|----|----|----|----||
----------------------------|----------------------------|----|----|----|----||
----------------------------|----------------------------|----|----|----|----||
----------------------------|----------------------------|----|----|----|----||


III. Flute Melody


E |----|----|----|----|----|----|----|----|----------------------------|
B |----|----|----|----|----|----|----|----|----------------------------|
G |----|----|----|----|----|----|----|----|--------10-------8-----10---|
D |----|----|----|----|----|----|----|----|-----------8--11------------|
A |----|----|----|----|----|----|----|----|----------------------------|
E |----|----|----|----|----|----|----|----|----------------------------|


----------------------------|----------------------------|----|
-----9--9--7--7-------------|----------------------------|----|
-----------------10-10-8----|--8-------------------------|----|
----------------------------|--------6--6----------------|----|
----------------------------|----------------------------|----|
----------------------------|----------------------------|----|


----------------------------|----------------------------|----------|----------||
----------------------------|-----7--7--6--6-------------|----------|-----6----||
--------8--------5-----6----|-----------------8--8--6----|--5--6----|--8-------||
-----------4--8-------------|----------------------------|----------|----------||
----------------------------|----------------------------|----------|----------||
----------------------------|----------------------------|----------|----------||


"Nintenscription is a young freelance transcription service providing fresh videogame sheetmusic."
Login or Register to remove this ad.