Ads

Schmetterling (Tokyo Ghoul) Guitar Tab

Submitted: Dec 03, 2022 by scarecrowlol (Last updated: Dec 03, 2022)

5
Average: 5 (3 votes)
Download | Listen
Game: Tokyo Ghoul
Composer(s): Yutaka Yamada
Style: Arrangement, Fingerstyle, Natural harmonics, Pinch harmonics

Click here for a video example.

AutoScroll: Slow | Medium | Fast
Title: Schmetterling
SubTitle: Tokyo Ghoul
Artist: Yutaka Yamada
Tabber: Mitch Jackson
Tempo = 100
T/S = 3/4


   ♪♫•*¨*•.¸¸ CAPO 4 ¸¸.•*¨*•♫♪


Left hand fingering is included in GP file as a guide

---------
LEGEND 
---------
h = Hammer-On
p = Pull-off
L = Hold Previous Note
^ = Upward Arpeggio
<?> = Natural Harmonic / Pinch Harmonic (N.H - P.H)
|-3-| = Triplet
rall = Rallentando (Gradually Slow Down Speed)
cres = Crescendo (Gradually Play Louder)
decres = Decrescendo (Gradually Play Quieter)
pp = pianissimo (Very Soft)
p = piano (Soft)
mp = mezzo-piano (Moderately Quiet)
mf = mezzo-forte (Moderately Loud)
f = forte (Loud or Strong)


  p
     E  E  E  E  E  E       Q     H                E  E  E  E  E  E       E  E  H
E |-----------------3----|--2-------------------|-----------------3----|--2-----5-------------|
B |-----------0--1-------|--------3-------------|-----------0--1-------|--------3-------------|
G |--------2-------------|--------2-------------|--------2-------------|--------2-------------|
D |-----2----------------|--------4-------------|-----2----------------|-----4----------------|
A |--0-------------------|--0-------------------|--0-------------------|--0-------------------|
E |----------------------|----------------------|----------------------|----------------------|

                                                                             ^
     E  E  E  E  E  E       Q     Q.       E       T T S E  E  E  E  E       H.
  |-----------------3----|--2--------------2----|--0h2p0------------------|--0-------------------|
  |-----------0--1-------|--------3-------------|--------------0--1--3----|--3-------------------|
  |--------2-------------|--------2-------------|-----------2-------------|--2-------------------|
  |-----2----------------|--------4-------------|--------2----------------|--4-------------------|
  |--0-------------------|--0-------------------|--0----------------------|--0-------------------|
  |----------------------|----------------------|-------------------------|----------------------|

                                                   ^                                                                        
     H.                     E  E  E  Q.            Q.       E  E  E       E  E  E  E  E  E
  |--L-------------------|--0-------------------|-----------------0----|--------------0--3----|
  |--L-------------------|----------------------|--3-----------3-------|--1--0-----1----------|
  |--L-------------------|-----------2----------|--2--------5----------|--------2-------------|
  |--L-------------------|--------2-------------|--4-------------------|----------------------|
  |--L-------------------|-----3----------------|--0-------------------|--0-------------------|
  |----------------------|--5-------------------|----------------------|----------------------|

     ^                   mp                        ^
     H.                     E  E  E  E             Q.       E  E  E       E  E  E  E  E  E     
  |--2-------------------|--0-------------------|-----------------0----|--3--2--0-------------|
  |--3-------------------|----------------------|--3-----------3-------|----------------------|
  |--2-------------------|-----------2----------|--2--------5----------|-----------------0----|
  |--4-------------------|--------2-------------|--4-------------------|--------------4-------|
  |--0-------------------|-----3----------------|--0-------------------|-----------2----------|
  |----------------------|--5-------------------|----------------------|--0-------------------|

       
     H           E  E       E  E  E  Q.            E  E  E  E  E  E       E  E  E  E  E  E
  |--------------0--3----|--5-------------------|-----------0----------|-----------------0----|
  |--0-------------------|-----------1----------|--3-----------1--0----|-----------0----------|
  |----------------------|--------0-------------|--------0--2----------|--5-----------5-------|
  |----------------------|----------------------|-----0----------------|--------2-------------|
  |----------------------|-----3----------------|----------------------|-----3----------------|
  |----------------------|--1-------------------|--3-------------------|--5-------------------|

                            ^                                             cres
     E  E  E  E  E  E       E  E  E  E  E  E       E  E  E  Q     E       E  E  E  E  E  E
  |--3-------------------|-----0----------------|-----0----------------|----------------------|
  |----------------------|--3--------------1----|--3-------------------|-----------0--1-------|
  |-----------0----------|--2-----2--0----------|--------2--------0----|--2-----2--------2----|
  |--------4-----2-------|----------------------|-----0-----2----------|-----2----------------|
  |-----2-----------2----|--------------3-------|----------------------|--0-------------------|
  |--0-------------------|--1-------------------|--3-------------------|----------------------|

                                                               |-3-| |-3-|   mf 
     E  E  E  E  E  E       E  E  E  E  E  E       E  E  E  E  S S S S S S      E  E  E  E  E  E
  |----------------------|----------------------|----------------------------|--0-------------------|
  |--------3-------------|-----------0--1-------|--------3-----------0h1h3---|-----------0--1-------|
  |-----2-----2----------|--------2--------2----|-----2-----2--0h2h4---------|--------2--2-----2----|
  |--------------4--0----|-----2----------------|--------0-------------------|-----2----------------|
  |--0-------------------|--0-------------------|--0-------------------------|--0-------------------|
  |--------------0-------|----------------------|----------------------------|----------------------|

                                                           
     E  E  E  E  E  E       E  E  E  E  E  E       E  E  E  E  E  E       E  E  E  E  E  E
  |-----------------0----|-----------------3----|--2-------------------|--0-------------------|
  |--3-----------3-------|--1--0-----0--1-------|-----3----------------|-----------0--1-------|
  |--------2--5----------|--------2-------------|--------2--------0----|--------2--2-----2----|
  |-----4----------------|----------------------|--------0--0--4-------|-----2----------------|
  |--0-------------------|--0-------------------|--0-------------------|--0-------------------|
  |----------------------|----------------------|--------------0-------|----------------------|

                                                                          cres
     E  E  E  E  E  E       E  E  E  E  E  E       E  E  E  E  E  E       E  E  E  E  E  E
  |-----------------0----|--3--2--0-------------|--0-----0--2--0--3----|--5-------------------|
  |--3-----------3-------|-----------------0----|-----0----------------|-----------1----------|
  |--------2--5----------|-----------0----------|----------------------|--------2-----2-------|
  |-----4----------------|--------------2-------|----------------------|----------------------|
  |--0-------------------|--------------2-------|--------2-------------|-----3-----------3----|
  |----------------------|--0-------------------|--0-----------0-------|--1-------------------|

                         f                         decres              mf     
     E  E  E  E  E  E       E  E  E  E  E  E       E  E  E  E  E  E       E  E  E  E  E  E
  |--------------0--7----|--8--------8--7--5----|--3-----0-------------|-----0----------------|
  |--3--------3----------|-----------5----------|--0-------------------|--3--------3-----1----|
  |--------0-------------|--------5-----7--5----|--------0--2--0-------|--------2-----2-------|
  |-----0----------------|-----7----------------|-----------------2----|--3-------------------|
  |----------------------|--0-------------------|-----2--------2-------|----------------------|
  |--3-------------------|----------------------|--0-------------------|----------------------|

     cres  f                                       decres              mp
     E  E  E  E  E  E       E  E  E  E  E  E       E  E  Q     Q          E  E  E  E  E  E
  |-----0--7--------0----|--5-------------------|--------3-------------|--0--------------3----|
  |--3-------------------|----------------------|--------------3-------|-----------0--1-------|
  |--0-----------0-------|-----------0--2-------|--------0-------------|--------2--------2----|
  |----------------------|--------3--------3----|-----0----------------|-----2----------------|
  |-----------7----------|-----3----------------|----------------------|--0-------------------|
  |--0-------------------|--1-------------------|--3-----------3-------|----------------------|

                                                   ^
     E  E  E  E  E  E       E  E  E  E  E  E       Q     H                H.
  |--2-------------------|-----------------3----|--5-------------------|--L-------------------|
  |--------3-------------|-----------0--1-------|--3-------------------|--L-------------------|
  |-----------2----------|--------2--------2----|--------2-------------|--L-------------------|
  |-----4--------4--0----|-----2----------------|--4-------------------|--L-------------------|
  |--0-------------------|--0-------------------|--0-------------------|--L-------------------|
  |----------------------|----------------------|----------------------|----------------------|

  p  ^                      ^                      ^              p.h     p.h
     E  E  Q.       E       E  E  Q.       E       E  E  Q.       E       H.
  |-----0----------------|----------------------|----------------------|----------------------|
  |--3-------------------|-----3--0-------------|--1--0----------<0>---|--L-------------------|
  |--2-----2--------0----|--2-------------------|--2-------------------|-<0>------------------|
  |--3-------------------|--0--------------2----|--2-----2-------------|--L-------------------|
  |----------------------|----------------------|--0-------------------|--L-------------------|
  |--1-------------------|--3-------------------|----------------------|----------------------|

     ^                      ^                      ^
     E  E  Q.       E       E  E  Q     E  E       Q.       E  E  E       Q     E  Q.
  |-----0----------------|----------------------|--0-------------------|----------------------|
  |--3-------------------|-----3--0-----1--3----|--1--------0--3--1----|--0-------------------|
  |--2-----2--------0----|--2-------------------|--0-------------------|--------2-------------|
  |--3-------------------|--0-------------------|--0-------------------|-----------2----------|
  |----------------------|----------------------|--3-------------------|--L-------------------|
  |--1-------------------|--3-------------------|----------------------|----------------------|
 
  mp ^
     E  E  E  E  E  E       E  E  E  E  Q          E  E  E  E  E  E       E  E  E  E  Q
  |--2--3--0--------3----|--5-------------------|--5--7--0--------7----|--8-----------8-------|
  |--0-----------0-------|----------------------|-----------0----------|-----------5----------|
  |--0--------0----------|-----------0--2-------|--------0-----0-------|--------5-------------|
  |--4-------------------|--------3-------------|-----0----------------|-----7----------------|
  |----------------------|-----3----------------|----------------------|--0-------------------|
  |--0-------------------|--1-------------------|--3-------------------|----------------------|

             
     E  E  E  E  E  E       E  E  Q.       E       E  E  E  E  E  E       Q     Q     E  E
  |--8-----7-----5-------|--3-------------------|--0-------------------|--0-------------------|
  |-----5-----6----------|--------1--------3----|-----------------0----|--------------1p-0----|
  |-----------------5----|-----2----------------|-----0--------0-------|----------------------|
  |--0-------------------|--0-------------------|-----------4----------|--------4-------------|
  |----------------------|----------------------|--------2-------------|----------------------|
  |----------------------|----------------------|--0-------------------|--0-------------------|

                                                                  p.h     cres           p.h
     E  E  E  E  E  E       E  E  Q.       E       E  E  E  E  E  E       E  E  E  E  E  E
  |--8-----7-----5-------|--3-------------------|--0-----------0-------|--------------0-------|
  |-----5-----6----------|--------1--------3----|-----------0----<0>---|-----------0----<0>---|
  |-----------------5----|-----2----------------|--------0-------------|--------1-------------|
  |--0-------------------|--0-------------------|-----2----------------|-----2----------------|
  |----------------------|----------------------|----------------------|----------------------|
  |----------------------|----------------------|--3-------------------|--4-------------------|

           cres
  mf ^     |-3-| |-3-| |-3-| |-3-|   f  n.h              
     Q     S S S S S S S S S S S S      E  E  E  E  E  E       E  E  E  E  E  E       E  E  E  E  E  E
  |--0-----------------------7h8h10--|-<12>-----------------|-----------------0----|-----------------3----| The scale in bar 69
  |--0-----------------7h9h10--------|-----------0--1-------|--3-----------3-------|--1--0-----0--1-------| can be simplified
  |--1-----------5h7h9---------------|--------2--2-----2----|--------2--5----------|--------2-------------| to make it easier
  |--2-----6h7h9---------------------|-----2----------------|-----4----------------|-----2----------------| if its too fast
  |--2-------------------------------|--0-------------------|--0-------------------|--0-------------------| to play
  |--0-------------------------------|----------------------|--------------0-------|----------------------|

     |-3-|                                                                
     S.S.S.S E  E  E  E       E  E  E  E  E  E       E  E  E  E  E  E       E  E  E  E  E  E 
  |--2h3p2-L-0-------------|--0-------------------|-----------------0----|--3--2--0-------------|
  |-------------3----------|-----------0--1-------|--3-----------3-------|-----------------0----|
  |----------2-----2-------|--------2--2-----2----|--------2--5----------|--------------0-------|
  |----------0--------4----|-----2----------------|-----4--------2-------|--------2--4----------|
  |--0-------------5-------|--0-------------------|--0-------------------|-----2----------------|
  |----------------0-------|----------------------|----------------------|--0-------------------|

 
     E  E  E  E  E  E       E  E  E  E  E  E       E  E  E  E  E  E       E  E  E  E  E  E
  |--------------0--3----|--5-------------------|--------------0--7----|--8--------8--7--5----|
  |-----0----------------|-----------1----------|--3--------3----------|-----------5----------|
  |--2--------0-----0----|--------------2-------|--------0-------------|--------5-----7--5----|
  |--------4-------------|--------3--------3----|-----0----------------|-----7----------------|
  |--------2-------------|-----3----------------|----------------------|--0-------------------|
  |--0-----------0-------|--1-------------------|--3-------------------|----------------------|

                                                                     
     E  E  E  E  E  E       E  E  E  E  E  E       E  E  E  E  E  E       E  E  E  E  E  E
  |--3-----0-------------|-----0----------------|-----0--7--------3----|--5-------------------|
  |--0-------------------|--3--------------1----|--3-----0-------------|----------------------|
  |-----0--------0-------|--------2-------------|-----0--------0-------|-----------0----------|
  |--4--------2-----2----|--------0--2--3-------|-----------4----------|--------3-----3--2----|
  |--------2-------------|-----0----------------|----------------------|-----3----------------|
  |--0-----------0-------|--1-------------------|--0-------------------|--1-------------------|

                         p      
     E  E  E  E  E  E       E  E  E  E  E  E       E  E  E  Q.            E  E  E  E  E  E
  |--------3-------------|--0--------------3----|--2-------------------|--0--------------3----|
  |--3-----0-----3-------|-----------0--1-------|--------3-------------|-----------0--1-------|
  |-----0-----0-----0----|--------2-------------|-----------2----------|--------2-------------|
  |--------0-----0-------|-----2----------------|-----4----------------|-----2----------------|
  |--------------2-------|--0-------------------|--0-------------------|--0-------------------|
  |--3-----------3-------|----------------------|----------------------|----------------------|

                                                                           decres
                                                                           |-3-|
     E  E  H                E  E  E  E  E  E       T S.E  E  Q     E       S S S E  E  E  Q
  |--2-----5-------------|-----------------3----|--3p2-------------2----|--0h2p0----5-----3-------|
  |--------3-------------|-----------0--1-------|---------3-------------|-------------------------|
  |--------2-------------|--------2-------------|------2-----2----------|--------------5----------|
  |-----4----------------|-----2----------------|---------4-------------|--------2----------------|
  |--0-------------------|--0-------------------|--0--------------------|--0----------------------|
  |----------------------|----------------------|-----------------------|-------------------------|

  pp ^                   p  ^                      ^                      ^ 
     H.                     E  E  E  E  E  E       E  E  H                E  E  E  E  E  E
  |--2-------------------|-----------------3----|--2-------------------|-----------------3----|
  |--3-------------------|--1--------0--1-------|--3-----3-------------|--1--------0--1-------|
  |--2-------------------|--4-----2-------------|--------2-------------|--2-----2-------------|
  |--4-------------------|-----2----------------|-----4----------------|-----2----------------|
  |--0-------------------|--0-------------------|--0-------------------|--0-------------------|
  |----------------------|----------------------|----------------------|----------------------|

     ^                      ^                                                   rall to finish (100 to 40bpm)
     E  E  H                E  E  E  E  E  E       E  E  E  E  E  E       E  E  E  E  E  E 
  |--2-----5-------------|-----------------3----|--2-----5--------2----|--0-----5--------3----|
  |--3-----3-------------|--1--------0--1-------|--------3-------------|----------------------|
  |--------2-------------|--4-----2-------------|--------------2-------|-----------2--5-------|
  |-----4----------------|-----2----------------|-----4-----4----------|-----2----------------|
  |--0-------------------|--0-------------------|--0-------------------|--0-------------------|
  |----------------------|----------------------|----------------------|----------------------|

     ^                                             ^                   pp p.h --->
     H.                     H.                     H.                     S  S  E  H
  |--2-------------------|--L-------------------|----------------------|-------<0>-L-------------|| The pinch harmonics
  |--3-------------------|--L-------------------|--0-------------------|----<0>----L-------------|| here are an octave + 5th
  |--2-------------------|--L-------------------|--2-------------------|-<2>-------L-------------|| so they are played 
  |--4-------------------|--L-------------------|--2-------------------|--L--------L-------------|| over the 9th, 7th & 7th
  |--0-------------------|--L-------------------|--3-------------------|--L--------L-------------|| frets consecutively
  |----------------------|----------------------|--5-------------------|--L--------L-------------||


Note Durations:
---------------
H.= Dotted Half Note - 3 Beats (Minim + Crotchet)
H = Half Note / Minim - 2 Beats
Q.= Dotted Quarter Note - 1 & 1/2 Beats (Crotchet + Quaver)
Q = Quarter Note / Crotchet - 1 Beat
E = Eighth Note / Quaver - 1/2 Beat
S.= Dotted Sixteenth Note - 3/8 Beat or 0.375 (Semiquaver + Demisemiquaver)
S = Sixteenth Note / Semiquaver - 1/4 Beat
T = Thirty Second Note / Demisemiquaver - 1/8 Beat
Login or Register to remove this ad.