Login or Register to remove this ad.

Everything's Alright (Music Box) (To the Moon) Guitar Tab

Submitted: Jan 06, 2017 by megamike

5
Average: 5 (2 votes)
Download | Listen
Game: To the Moon
Composer(s): Laura Shigihara, Kan R. Gao
Style: Arrangement, Fingerstyle

AutoScroll: Slow | Medium | Fast
Everything's Alright (Music Box)
To the Moon
Song By Kan R Gao, Laura Shigihara
Arranged by megamike

Tempo 100~

     Q    E  E  Q    Q       Q    Q    H           Q    E  E  Q.     E     Q.     E  Q    Q     
E||------------------0----|--2------------------|-------2--4--5------4--|--0-------------------|
B||----------0--2---------|---------------------|-----------------------|-----------------0----|
G||-------2---------------|-------2----1--------|-------------2---------|------------2----2----|
D||-----------------------|--0------------------|-----------------------|---------2------------|
A||-----------------------|---------------------|-------2---------------|--0-------------------|
E||-----------------------|---------------------|--0--------------------|----------------------|


  Q    Q    Q    Q       Q    H        Q       Q    E  E  Q    Q       Q.     E  Q    Q     
----------------------|---------------------|-----------------------|----------------------|
--2--------------2----|--3-------------2----|--3----2--3--0----2----|--2-------------------|
-----------------4----|-------2-------------|-------2---------------|--2-------------------|
------------2---------|--0----L--------4----|--0---------------2----|-----------------2----|
-------0--------------|---------------------|-------------0---------|--4---------0---------|
--3-------------------|---------------------|-------1---------------|---------0------------|


  Q    E  E  E  E  Q       Q    Q    Q    Q       Q    E  E  Q    E  E     Q.     E  Q    Q   
-------------------0----|--2-------------------|-------2--4--5-------4--|--0-------------------|
----------0--2--0--2----|----------------------|-------------5----------|--2--------------2----|
-------2----------------|--2---------1---------|------------------------|------------2----4----|
-------------2----------|--0---------2----0----|-------------7----6-----|--2-------------------|
--4----4----------------|-------0--------------|-------2----------------|--0------4------------|
--3---------------------|----------------------|--0---------------------|----------------------|


  Q    Q    H           H        H           Q.     E  Q.     E   
--3----2----0--------|--------------------|----------------------|
---------------------|-----------3--------|--2-------------------|
--0------------------|--------------------|---------2--2---------|
------------4--------|--------------------|--0---------0------2--|
------------0--------|--------------------|----------------------|
--3------------------|--------------------|----------------------|


  Q    Q    H           H        H           W                  
---------------------|--------------------|-------------------||
-------2----0--------|--------------------|--2----------------||
--2---------1--------|-----------1--------|-------------------||
---------------------|--------------------|--2----------------||
-------2-------------|--------------------|--0----------------||
--0------------------|--0-----------------|-------------------||




Duration Legend
---------------
W - whole
H - half
Q - quarter
E - 8th
. - note dotted
Login or Register to remove this ad.