Ads

Type A (Tetris (Game Boy)) Mandolin Tab

Submitted: Jun 03, 2009 by LoneCentrist (Last updated: Aug 15, 2011)

5
Average: 5 (4 votes)
Download | Listen
Game: Tetris (Game Boy)
Composer(s): Hirokazu Tanaka
Style: Transcription
Series: Tetris

AutoScroll: Slow | Medium | Fast
"Type A" (Originally Korobeiniki [Коробейники])
Tetris
Russian Folk Song
Tabbed by Rob Van
6/2/09

E|0------------------0---------------0--------|
A|-2-3-5--3-2-0-0-3-----5-3-2--2-3-5---3-0-0--|
D|--------------------------------------------|
G|--------------------------------------------|

E|---1--5-3-1-0-----0----------------0--------|
A|5---------------3---5--3--2-2-3-5----3-0-0--|
D|--------------------------------------------|
G|--------------------------------------------|


E|0-----------------------0---------------1-0-|
A|--3--5--2---3---0----2----3--5--2---3-------|
D|-------------------6------------------------|
G|--------------------------------------------|
Login or Register to remove this ad.

4 comments on Type A

nice tab...

But you might want to flip your tuning keys around: they're up-side down.

It's a mandolin tab, not a

It's a mandolin tab, not a bass tab. Mandolin is like violin. They both have backwards bass tuning XD

My bad...

Lesson learned. :)

Love this tab

I love this tab you should make more tetris tab