Theme A (Tetris (Game Boy)) Bass/Guitar Tab

Submitted: Jul 29, 2011 by Lawarsi (Last updated: Aug 15, 2011)

5
Average: 5 (2 votes)
Download | Listen
Game: Tetris (Game Boy)
Composer(s): Hirokazu Tanaka
Style: 2 or more instruments, Transcription
Series: Tetris

AutoScroll: Slow | Medium | Fast
Track 1
     E  E  E  E  E  E  E  E     E  E  E  E  E  E  E  E   
E||--0-----------------------|--------------0-----------|
B||--------0--1--3-----1--0--|-----------1--------3--1--|
G||--------------------------|--2-----2-----------------|
D||--------------------------|--------------------------|
A||--------------------------|--------------------------|
E||--------------------------|--------------------------|


  E  E  E  E  E  E  E  E     E  E  E  E  E  E  E  E   
--------------------0-----|--------------------------|
--0--------1--3-----------|--1-----------------------|
--------------------------|--------2-----2--L--L--L--|
--------------------------|--------------------------|
--------------------------|--------------------------|
--------------------------|--------------------------|


  E  E  E  E  E  E  E  E     E  E  E  E  E  E  E  E   
-----------1--5-----3--1--|--0-----------0-----------|
-----3--------------------|-----------1--------3--1--|
--------------------------|--------------------------|
--------------------------|--------------------------|
--------------------------|--------------------------|
--------------------------|--------------------------|


  E  E  E  E  E  E  E  E     E  E  E  E  E  E  E  E     
--------------------0-----|---------------------------||
--0--------1--3-----------|--1------------------------||
--------------------------|--------2-----2--L--L--L--*||
--------------------------|--------------------------*||
--------------------------|---------------------------||
--------------------------|---------------------------||


  E  E  E  E  E  E  E  E     E  E  E  E  E  E  E  E   
--0--L--L--L--------------|--------------------------|
--------------1--L--L--L--|--3--L--L--L--0--L--L--L--|
--------------------------|--------------------------|
--------------------------|--------------------------|
--------------------------|--------------------------|
--------------------------|--------------------------|


  E  E  E  E  E  E  E  E     E  E  E  E  E  E  E  E   
--------------------------|--------------------------|
--1--L--L--L--------------|--------------0--L--L--L--|
--------------2--L--L--L--|--1--L--L--L--L--L--L--L--|
--------------------------|--------------------------|
--------------------------|--------------------------|
--------------------------|--------------------------|


  E  E  E  E  E  E  E  E     E  E  E  E  E  E  E  E   
--0--L--L--L--------------|--------------------------|
--------------1--L--L--L--|--3--L--L--L--0--L--L--L--|
--------------------------|--------------------------|
--------------------------|--------------------------|
--------------------------|--------------------------|
--------------------------|--------------------------|


  E  E  E  E  E  E  E  E     E  E  E  E  E  E  E  E   
--------------5--L--L--L--|--4--L--------------------|
--------1--L--------------|--------------------------|
--2--L--------------------|--------------------------|
--------------------------|--------------------------|
--------------------------|--------------------------|
--------------------------|--------------------------|


  E  E  E  E  E  E  E  E     E  E  E  E  E  E  E  E   
--0-----------------------|--------------0-----------|
--------0--1--3-----1--0--|-----------1--------3--1--|
--------------------------|--2-----2-----------------|
--------------------------|--------------------------|
--------------------------|--------------------------|
--------------------------|--------------------------|


  E  E  E  E  E  E  E  E     E  E  E  E  E  E  E  E   
--------------------0-----|--------------------------|
--0--------1--3-----------|--1-----------------------|
--------------------------|--------2-----2--L--L--L--|
--------------------------|--------------------------|
--------------------------|--------------------------|
--------------------------|--------------------------|


  E  E  E  E  E  E  E  E     E  E  E  E  E  E  E  E   
-----------1--5-----3--1--|--0-----------0-----------|
-----3--------------------|-----------1--------3--1--|
--------------------------|--------------------------|
--------------------------|--------------------------|
--------------------------|--------------------------|
--------------------------|--------------------------|


  E  E  E  E  E  E  E  E     E  E  E  E  E  E  E  E    
--------------------0-----|--------------------------||
--0--------1--3-----------|--1-----------------------||
--------------------------|--------2-----2--L--L--L--||
--------------------------|--------------------------||
--------------------------|--------------------------||
--------------------------|--------------------------||




Track 2
     E  E  E  E  E  E  E  E     E  E  E  E  E  E  E  E   
G||--------------------------|--------------------------|
D||-----2-----2-----2-----2--|-----2-----2-----2-----2--|
A||--------------------------|--0-----0-----0-----0-----|
E||--0-----0-----0-----0-----|--------------------------|


  E  E  E  E  E  E  E  E     E  E  E  E  E  E  E  E   
--------------------------|--------------------------|
-----2-----2-----2-----2--|-----2-----2--------------|
--------------------------|--0-----0-----0--L--2--3--|
--4-----4-----0-----0-----|--------------------------|


  E  E  E  E  E  E  E  E     E  E  E  E  E  E  E  E   
-----2-----2-----2-----2--|-----0-----0-----0-----0--|
--0-----0-----0-----0-----|--------------------------|
--------------------------|--3-----3-----3-----3-----|
--------------------------|--------------------------|


  E  E  E  E  E  E  E  E     E  E  E  E  E  E  E  E     
--------------------------|---------------------------||
-----2-----2-----2-----2--|-----2-----2--------------*||
--2-----2-----2-----2-----|--0-----0-----0--L--L--L--*||
--------------------------|---------------------------||


  E  E  E  E  E  E  E  E     E  E  E  E  E  E  E  E   
--------------------------|--------------------------|
-----2-----2-----2-----2--|-----2-----2-----2-----2--|
--0-----0-----0-----0-----|--------------------------|
--------------------------|--4-----4-----4-----4-----|


  E  E  E  E  E  E  E  E     E  E  E  E  E  E  E  E   
--------------------------|--------------------------|
-----2-----2-----2-----2--|-----2-----2--------------|
--0-----0-----0-----0-----|--------------------------|
--------------------------|--4-----4-----4--L--L--L--|


  E  E  E  E  E  E  E  E     E  E  E  E  E  E  E  E   
--------------------------|--------------------------|
-----2-----2-----2-----2--|-----2-----2-----2-----2--|
--0-----0-----0-----0-----|--------------------------|
--------------------------|--4-----4-----4-----4-----|


  E  E  E  E  E  E  E  E     E  E  E  E  E  E  E  E   
--------------------------|--------------------------|
-----2-----2-----2-----2--|-----2-----2--------------|
--0-----0-----0-----0-----|--------------------------|
--------------------------|--4-----4-----------------|


  E  E  E  E  E  E  E  E     E  E  E  E  E  E  E  E   
--------------------------|--------------------------|
-----2-----2-----2-----2--|-----2-----2-----2-----2--|
--------------------------|--0-----0-----0-----0-----|
--0-----0-----0-----0-----|--------------------------|


  E  E  E  E  E  E  E  E     E  E  E  E  E  E  E  E   
--------------------------|--------------------------|
-----2-----2-----2-----2--|-----2-----2--------------|
--------------------------|--0-----0-----0--L--2--3--|
--4-----4-----0-----0-----|--------------------------|


  E  E  E  E  E  E  E  E     E  E  E  E  E  E  E  E   
-----2-----2-----2-----2--|-----0-----0-----0-----0--|
--0-----0-----0-----0-----|--------------------------|
--------------------------|--3-----3-----3-----3-----|
--------------------------|--------------------------|


  E  E  E  E  E  E  E  E     E  E  E  E  E  E  E  E    
--------------------------|--------------------------||
-----2-----2-----2-----2--|-----2-----2--------------||
--2-----2-----2-----2-----|--0-----0-----0--L--L--L--||
--------------------------|--------------------------||




Duration Legend
---------------
W - whole
H - half
Q - quarter
E - 8th
S - 16th
T - 32nd
X - 64th
. - note dotted
|-n-|  - n-tuplets


Tablature Legend
----------------
L - tied note
x - dead note
g - grace note
(n) - ghost note
> - accentuded note
NH - natural harmonic
AH - artificial harmonic
TH - tapped harmonic
SH - semi harmonic
PH - pitch harmonic
h - hammer on
p - pull off
b - bend
br - bendRelease
pb - preBend
pbr - preBendRelease
brb - bendReleaseBend
\n/ - tremolo bar dip
\n - tremolo bar dive
-/n - tremolo bar Release up
/n\ - tremolo bar inverted dip
/n - tremolo bar return
-\n - tremolo bar Release down
S - shift slide
s - legato slide
/ -  slide into from below or out of upwards
\ -  slide into from above or out of downwards
~ - vibrato
W - wide vibrato
tr - trill
TP - tremolo picking
T - tapping
S - slap
P - pop
< - fade in
^ - brush up
v - brush down
Login or Register to remove this ad.

2 comments on Theme A

the bass isn't identical to

the bass isn't identical to the actual song, its a more simplified version.

Wow!

5

I thought of the same thing for track 1 too in like 5 minutes! cool to see someone else think the same :D