Login or Register to remove this ad.

The Journey (Terranigma) Guitar Tab

Submitted: Dec 03, 2009 by Agahnim

5
Average: 5 (4 votes)
Download | Listen
Game: Terranigma
Composer(s): Miyoko Kobayashi, Masanori Hikichi
Style: Arrangement, Fingerstyle

This song is also called The Departure

AutoScroll: Slow | Medium | Fast
Dark Side Field  
Terranigma
Composed by: Miyoko Kobayashi, Masanori Hikichi
Arranged by: Ivo Koporcic
December 3, 2009


CAPO on 2nd Fret

      E  E  E  E  E  E  E  E     E  E  E  E  E  E  E  E   
F#||--------------0-----------|--------------0-----3--5--|
C#||-----------------0--------|--------------0-----------|
A ||--------0-----------0-----|--------0-----------------|
E ||-----2-----2-----------2--|-----2-----2--------------|
B ||--------------------------|--------------------------|
F#||--0-----------------0-----|--0-----------------0-----|


  E  E  E  E  E  E  E  E     E  E  E  E  E  E  E  E   
--2--------0--------------|--0-----------0-----3--5--|
--0-----0--0--------0-----|-----0-----0--0-----0-----|
-----0-----------0--------|--------0-----------------|
--------------------------|--------------------------|
-----------2--------2-----|--------------2-----2-----|
--0-----------------------|--0-----------------------|


                                            |----3----|     
  E  E  E  E  E  E  E.  T T    E  E  E  S S Q    Q    Q     
--2--------0----------------|------------------------------|
--------1--1--------3---2-1-|--0------------0--------------|
-----0-----------0----------|-----0---------0---------0----|
----------------------------|-----------2-3----------------|
--3--------3--------3-------|--3------------3--------------|
----------------------------|--------------------3----0----|


  E  E  E  Q    E.  E.     E.  E.  E  E.  S E  E     Q.     Q.     E  S S  
------------------------|------0------------------|-----------------------|
--0-----0--1----3---1---|--3-------3--1---3----1--|--0--------------------|
-----2-----2------------|-------------2-----------|--0------0-------------|
------------------------|-------------------------|---------2---------2-3-|
------------------------|-------------------------|-----------------------|
--1--------1------------|--1-------1--------1-----|--0------0------0------|


  E  E  E  E  E  E  E  E     E  E  E  E  E  E  E.  S  
--------------------0-----|--2--------0------------7-|
--0-----------0--------0--|--0-----------------0-----|
--0--------0-----0--------|--------------------0-----|
--------------------------|--------------------------|
-----------2--------------|--------------------------|
--0-----------------0-----|--0-----0-----0-----0-----|


  E  E  E  E  E  E  E  E     E  E  E  E  E  E  E  E   
--7-----------------2--3--|--2--------0--------------|
--5--------0--------------|--1-----------------0-----|
--------------------------|--------0--------0--------|
--------------------------|--------------------------|
--------------------2-----|--3--------3--------3-----|
-----0--------0-----------|--------------------------|


  E  E  E  E  E  E  S E  S    E  E  E  E  E  E  E  E   
-----------0-----2----3----|--5--------1--------------|
--3------------------------|--1-----------------1-----|
--------0------------------|--------------------------|
---------------------------|--------------------------|
--3--------3--------3------|--------------------------|
---------------------------|--1--------1--------1-----|


  E  E  E  E  E  E  E  E     S S E  E  E  E  E  E  E   
--------------------------|---------------------------|
-----3--------------1-----|--0-1-0--------2-----------|
-----------2--------2-----|--0------------2-----------|
--------------------------|---------------------------|
--------------------------|---------------------------|
--1-----1-----1-----1-----|--0---0-----0--2--2-----2--|


  E  E  E  E  E  E  E.  S    E  E  E  E  E  E  E  E   
------------------------2-|--2--------0-----2-----3--|
--3-----------2-----3-----|--1--------------1--------|
--4-----------2-----4-----|--0-----------------------|
--------------------0-----|--------------------------|
--------------------------|--3-----3-----3-----3-----|
--3--3-----3--2-----------|--------------------------|


  |--3--|  |--3--|  |--3--|  |--3--|                              
  E  E  E  E  E  E  E  E  E  E  E  E     E  E  E  E  E  E  E  E   
--5-----3-----2-----------------------|--------------------------|
--3-----------------3-----0-----------|--0-----------2-----------|
--------------------2-----------2-----|--0-----------2-----------|
--0--------0--------0--------0--------|--------------------------|
--------------------------------------|--------------------------|
--------------------------------------|--0-----0-----0-----0-----|


  E  E  E  E  E  E  E.  S    E  E  E  E  E  E  E  E   
------------------------2-|--2--------0-----2-----3--|
--3--------2--------3-----|--1--------------1--------|
--4--------2--------4-----|--0-----------------------|
--------------------------|--------------------------|
--------------------------|--3-----3-----3-----3-----|
--0-----0-----0-----0-----|--------------------------|


  |--3--|  |--3--|  |--3--|  |--3--|                              
  E  E  E  E  E  E  E  E  E  E  E  E     E  E  E  E  E  E  E  E   
--5-----3-----2-----------------------|--0--------------------0--|
--3-----------------3-----0-----3-----|--0--------------------0--|
--------------------2-----------------|--2-----------2--------1--|
--0--------0--------0--------0--------|--------------------------|
--------------------------------------|--------------------------|
--------------------------------------|--0-----0-----0-----0-----|


  E  E  E  E  E  E  E.  S    E  E  E  E  E  E  E  E   
------------------------2-|--2--------0-----2-----3--|
--------------0-----0-----|--1--------------1--------|
--------1-----1-----1-----|--0-----------------------|
-----2-----2--------------|--------------------------|
--------------------------|--3-----3-----3-----3-----|
--0-----0-----0-----0-----|--------------------------|


  |--3--|  |--3--|  |--3--|  |--3--|                              
  E  E  E  E  E  E  E  E  E  E  E  E     E  E  E  E  E  E  E  E   
--5-----3-----2-----2-----7-----5-----|--7-----------------------|
--3-----------------3-----------------|--------------2-----------|
--------------------------------------|--7-----------2-----------|
--0--------0--------0--------0--------|--------------------------|
--------------------------------------|--------------------------|
--------------------------------------|--0-----0-----0-----0-----|


  E  E  E  E  E  E  E.  S    E  E  E  E  E  E  E  E   
------------------------2-|--2--------0-----2-----3--|
--3--------2--------3-----|--1--------------1--------|
--4--------2--------4-----|--0-----------------------|
--------------------------|--------------------------|
--------------------------|--3-----3-----3-----3-----|
--0-----0-----0-----0-----|--------------------------|


  |--3--|  |--3--|  |--3--|  |--3--|                              
  E  E  E  E  E  E  E  E  E  E  E  E     E  E  E  E  E  E  E  E   
--5-----3-----2-----------------2-----|--2--------------------0--|
--3-----------------3-----0-----------|--0-----------0--------0--|
--------------------2-----------------|--------------1-----------|
--0--------0--------0--------0--------|--------------------------|
--------------------------------------|--------------------------|
--------------------------------------|--0-----0-----0-----0-----|


  E  E  E  E  E  E  E.  S    E  E  E  E  E  E  E  E     E  E  E  E  E  E  Q     
------------------------2-|--2--------0--------3-----|--5--------5--------2----|
--------------0-----0-----|--1--------1--------------|--7--------7-------------|
--------1-----1-----1-----|--0--------0--------------|--7--------7-------------|
-----2-----2--------------|--------------------------|--0--------0-------------|
--------------------------|--3-----------3-----------|--------------------2----|
--0-----0-----0-----0-----|--------------------------|-------------------------|


  E  E  E  E  E  E  E  E     E  E  E  E  H                
--0--------------------0--|--------------0--------|-----||
--0--------------------0--|--------0-----0--------|-----||
--1--------------------1--|-----1-----1--1--------|-----||
--------------------------|-----------------------|-----||
--------------2-----------|--------------2--------|-----||
--0-----4-----------4-----|--0-----0--------------|-----||
Login or Register to remove this ad.

3 comments on The Journey

just awesome, thanks agahnim

just awesome, thanks agahnim

i want to violate

5

i want to violate you

lovingly

<3

So glad someone out there

5

So glad someone out there took the time to arrange stuff from this game. Both of these are amazing, the songs as well as the respective tabs. Thanks a bunch!

EDIT: For some reason I thought this and Unforeseen Ocurrence were the only tabs on here, but even you alone have contributed more than that. My points still stand, though!