Ads

Castle (Terranigma) Guitar Tab

Submitted: Apr 23, 2009 by Agahnim (Last updated: Feb 03, 2010)

5
Average: 5 (5 votes)
Download | Listen
Game: Terranigma
Composer(s): Miyoko Kobayashi, Masanori Hikichi
Style: Arrangement, Fingerstyle

AutoScroll: Slow | Medium | Fast

Castle
Terranigma
Composed by: Miyoko Kobayashi, Masanori Hikichi
Arranged by: Ivo Koporcic
April 24, 2009

     H        Q    Q       Q    Q    Q    Q         E.  S E  E  Q    Q     
E||---------------------|--2---------1----1----||-------------------------|
B||--2--------6---------|--2--------------0----||---2---3----2--0---------|
G||--2--------4---------|------------2---------||*--2-----------1---------|
D||----------------6----|-------4----0----0----||*------------------------|
A||--0------------------|----------------------||---0-----0---------------|
E||-----------4---------|--2-------------------||---------------0----4----|


  E.  S E  E  Q    E  E     E  E  E  E  S S S S S S S S  
-------------------------|------------------------------|
-----------2-------------|--------------3---2-----------|
--2---4------------2-----|--------2-------------4---2---|
--4-----4-----4----0-----|--2---------------------------|
--------------5----------|--4-----------------------0---|
--2----------------------|-----0-----0--2-----4---------|


  E  E  E  E  E  E  E  E     E.  S E  E  Q    Q     
--------------------------|------------------------|
--------------------------|--2---3----2--0---------|
--2-----------1-----------|--2-----------1---------|
--4-----------2-----0-----|------------------------|
--2-----------------------|--4-----0---------------|
--------2-----0-----4-----|--------------0----4----|


  E.  S E  E  E  S S S S S S    E  E  E  S S E.  S S S E   
--------------2----4-----5---|--0-------------------------|
-----------2--3------3-------|-------------2-0------------|
--2---4----------------------|--2--------2---1---2-----1--|
--4-----4-----0--------------|--------2------------0------|
-----------------------------|--4-------------------------|
--2--------------------------|---------------0-----4------|


  Q    Q    Q    Q       E  E  E  E  E  E  E  E     E  E  E  E  E  E  E  E   
-----------------0----|--------------------------|--------------------0-----|
----------------------|--4--------------2--0-----|--0-----------------------|
--1---------2---------|--4-----4-----2--------2--|--2-----2-----4-----4-----|
--0----2--------------|--4-----4-----4-----4-----|--4-----4-----6-----6-----|
------------4---------|-----2-----0--------------|-----------2--------------|
----------------------|--------2-----------------|--0-----------0-----------|


  E  E  E  E  E  E  E  E     E  E  E  S S E  E  E  S S  
-----------------2--4--5--|--2----------2-0--------5-7-|
--4--------5--------------|--0--------3---0------------|
--4-----4-----2-----2-----|----------------------------|
--4-----4-----4-----------|--0-----0------------6------|
-----2-----2--------0-----|----------------------------|
--------2-----------------|-----2-----3---4--0---------|


  E  E  E  E  E  E  E  E     E  E  E  E  E  E  E  E   
--9--------9--7-----------|--5-----7-----9--------9--|
--5-----------4-----7-----|--3-----------------------|
-----0-----0--------------|--------------6-----------|
-----------------4-----4--|--3--3-----3--------------|
--------------------------|-----------------7-----7--|
--------------------------|--------------------------|


  E  E  E  E  E  E  E   E     Q    Q    Q    Q        E.   E.  E  E.  E.  E   
--7------------------------|--5---------4----0----|---9---10---9--7-------7--|
-----------7--7-----7--10--|--0---------5----0----|--10-----------6----------|
--8-----------8------------|------------4---------|---9-----------4-------4--|
--------------9------------|--2----4--------------|-------------------6------|
-----6-----6--------9------|----------------------|---0----------------------|
---------------------------|------------4----0----|---------------4----------|


   E.   S S S E  Q    Q       Q    Q    E  E  E  E     Q    E  S S Q    Q     
--------------9--2----5----|--0---------------------|--2-------4-2-0---------|
--10---12--------5----3----|--0---------3--2-----2--|--3-----------0---------|
--11-----------------------|------------2-----4-----|--2-----------1---------|
-----------------0----0----|------------------------|--0-----------2---------|
---9-----------------------|--4---------------4-----|------------------------|
---------------------------|-------4----2-----------|-------------------0----|


  E.  S E  E  Q    Q       E.  S E  E  E  S S S S S S  
------------------------|--------------2----4-----5---|
--2---3----2--0---------|-----------2--3------3-------|
--2---------------------|--2---4----------------------|
--2-----------3----6----|--4-----4-----0------0-------|
--0-----0---------------|-----------------------------|
--------------4---------|--2--------------------------|


  H        S S S S S S S S    Q.     S S Q    S S S S    
--5--------7-----5-----4---|--5------------------------||
--2--------5-------3-------|--3------2-0-2----------0--||
--2----------------2-------|--2----------2------1-2---*||
-----------0---------------|--------------------------*||
-------------------2-------|--0----------0-------------||
--0------------------------|---------------------------||


  Q.     S S H          
--5-------------------||
--3------2-0-2--------||
--2----------2--------||
----------------------||
--0----------0--------||
----------------------||


Duration Legend
---------------
W - whole
H - half
Q - quarter
E - 8th
S - 16th
. - note dotted
Login or Register to remove this ad.

1 comment on Castle

love it

ive waited long for someone to tab this. finally the time has arrived... thank you so much ivo, great tab