Ads

Sub Boss (Teenage Mutant Ninja Turtles) Guitar Tab

Submitted: Jan 15, 2010 by LTRobson (Last updated: Jan 26, 2010)

0
Download | Listen
Game: Teenage Mutant Ninja Turtles
Composer(s): Keizo Nakamura
Style: Alternate picking, Transcription

AutoScroll: Slow | Medium | Fast
Teenage Mutant Ninja Turtles - Sub-Boss (NES)
Tabbed by LTRobson 16/06/07

Standard tuning

|--------------------------------------------|
|--------------------------------------------|
|--------------------------------------0---2-|
|-0-0-0---0--3---2---1---0-0-0---0-3---------|
|-------3----------------------3-------------|
|--------------------------------------------|

|-------------------------------------------|
|-------------------------------------------|
|-1-1-1-0-1-0-0-0---0-----------------------|
|-----------------3---3-0---0---0-----------|
|-------------------------3-------3-0-------|
|-------------------------------------4-3-1-|

|--------------------------------------------|
|--------------------------------------------|
|--------------------------------------0---2-|
|-0-0-0---0--3---2---1---0-0-0---0-3---------|
|-------3----------------------3-------------|
|--------------------------------------------|

|-------------------------------------------|
|-------------------------------3p1---------|
|-1-1-1-0-1-0-0-0---0---------------2-1-0---|
|-----------------3---3-0---0-------------3-|
|-------------------------3-----------------|
|-------------------------------------------|


|------------------------------------------0-2-|
|--------------------------------------1-3-----|
|-0--0-0-1--0--0-0-1--0--0-0-1--3-3--3---------|
|----------------------------------------------|
|----------------------------------------------|
|----------------------------------------------|


|-3--3-3-4--3--3-3-4--3-3--3-4----15p12----------------|
|---------------------------------------14-11----------|
|------------------------------------------------------|
|------------------------------------------------------|
|---------------------------------------------12-12-12-|
|------------------------------------------------------|
Login or Register to remove this ad.