Sewer Surfin' (Teenage Mutant Ninja Turtles IV: Turtles in Time) Guitar Tab

Submitted: Jan 20, 2010 by soundsandstuff (Last updated: Jan 20, 2010)

5
Average: 5 (3 votes)
Download | Listen
Game: Teenage Mutant Ninja Turtles IV: Turtles in Time
Composer(s): Kazuhiko Uehara, Harumi Ueko
Style: 2 or more instruments, Alternate picking, Transcription

AutoScroll: Slow | Medium | Fast
Teenage Mutant Ninja Turtles 4: Turtles in Time - Sewer Surfin'
Platform: Super Nintendo Entertainment System/SNES
Composed by: Mutsuhiko Izumi
Produced by: Kazuhiko Uehara and Harumi Ueko

Guitar Tab Created By: soundsandstuff www.youtube.com/user/soundsandstuff
Completed on: 12/31/09


Read: Before playing, tune your guitar to standard E.
      
There are two tabs in this file, one for Guitar 1 and another for Guitar 2 harmonies.



Guitar 1

============================================== A

E|----15----12-13-------12-------11-------|
B|----------------------------13----------|
G|----------------------------------------|
D|----------------------------------------|
A|----------------------------------------|
E|----------------------------------------|


E|----15----12-13-------12-------11-------|
B|----------------------------13----------|
G|----------------------------------------|
D|----------------------------------------|
A|----------------------------------------|
E|----------------------------------------|

======================================================= B

E|-----15-----15-----13----13-15-18-18-15-13--|
B|--15-----15-----15--------------------------|
G|--------------------------------------------|
D|--------------------------------------------|
A|--------------------------------------------|
E|--------------------------------------------|


E|-------------------15-------|
B|--17-17-17--16-16-----------|
G|----------------------------|
D|----------------------------|
A|----------------------------|
E|----------------------------|


E|-----15-----15-----13----13-15-18-18-15-13--|
B|--15-----15-----15--------------------------|
G|--------------------------------------------|
D|--------------------------------------------|
A|--------------------------------------------|
E|--------------------------------------------|


E|------------15-15--15-------|
B|--17-17-17------------------|
G|----------------------------|
D|----------------------------|
A|----------------------------|
E|----------------------------|

===================================================================== C

E|-----------------------------------------------------------|
B|------12----13-12-------------------12----13-12------------|
G|---12----12-------12-----12------12----12-------12-----12--|
D|---------------------15----------------------------15------|
A|-----------------------------------------------------------|
E|-----------------------------------------------------------|


E|--15-13------13-12------12----------------------------|
B|---------------------------13-15----------------------|
G|----------------------------------12-12-12------------|
D|------------------------------------------------------|
A|------------------------------------------------------|
E|------------------------------------------------------|


E|-----------------------------------------------------------|
B|------12----13-12-------------------12----13-12------------|
G|---12----12-------12-----12------12----12-------12-----12--|
D|---------------------15----------------------------15------|
A|-----------------------------------------------------------|
E|-----------------------------------------------------------|


E|--15-13------13-12------12------------------------------------13-15--|
B|---------------------------13-15---------------------13-14-15--------|
G|----------------------------------12-12-12-----12-15-----------------|
D|---------------------------------------------------------------------|
A|---------------------------------------------------------------------|
E|---------------------------------------------------------------------|

================================================================================== D

E|----18--17---18--17---18-17-15------------------|
B|------------------------------------------------|
G|------------------------------------------------|
D|------------------------------------------------|
A|------------------------------------------------|
E|------------------------------------------------|


E|----22--20---22--20---22-20-22--------20--21-22--|
B|-------------------------------------------------|
G|-------------------------------------------------|
D|-------------------------------------------------|
A|-------------------------------------------------|
E|-------------------------------------------------|

========================================================== Repeat from part B






Guitar 2

============================================== A

E|----------------------------------------|
B|----------------------------------------|
G|----------------------------------------|
D|-----9-------8--------10-------8--------|
A|----------10----------------10----------|
E|----------------------------------------|


E|----------------------------------------|
B|----------------------------------------|
G|----------------------------------------|
D|-----9-------8--------10-------8--------|
A|----------10----------------10----------|
E|----------------------------------------|

======================================================= B

E|--------------------------------------------|
B|-------------------11-----------------------|
G|--12-12--12-12--12--------------------------|
D|--------------------------------------------|
A|----------------------------10-13-13-10-----|
E|-------------------------13-------------13--|


E|----------------------------|
B|--13-13-13--11-11--12-------|
G|----------------------------|
D|----------------------------|
A|----------------------------|
E|----------------------------|


E|--------------------------------------------|
B|-------------------11-----------------------|
G|--12-12--12-12--12--------------------------|
D|--------------------------------------------|
A|----------------------------10-13-13-10-----|
E|-------------------------13-------------13--|



E|------------11-11-----------|
B|--13-13-13------------------|
G|-------------------12-------|
D|----------------------------|
A|----------------------------|
E|----------------------------|

===================================================================== C
(Rest)
E|--------------------------------------------|
B|--------------------------------------------|
G|--------------------------------------------|
D|--------------------------------------------|
A|--------------------------------------------|
E|--------------------------------------------|

===================================================================== D
(Rest)
E|--------------------------------------------|
B|--------------------------------------------|
G|--------------------------------------------|
D|--------------------------------------------|
A|--------------------------------------------|
E|--------------------------------------------|

====================================================================== Repeat from part B


Notes:

- Yup the harmonies may not be so accurate because they were hard to distinguish from the
track that I was transcribing, so yeah I tried to get them as close to the original as I
could x)

- Thank you for playing!
Login or Register to remove this ad.

3 comments on Sewer Surfin'

More turtles are necessary!!!

5

More turtles are necessary!!!

Moar Turtles!!!

Moar Turtles!!!

Thanks for tab, its very very

5

Thanks for tab, its very very good