Ads

Neon Night Riders (Teenage Mutant Ninja Turtles IV: Turtles in Time) Guitar Tab

Submitted: Sep 30, 2009 by soundsandstuff

5
Average: 5 (1 vote)
Download | Listen
Game: Teenage Mutant Ninja Turtles IV: Turtles in Time
Composer(s): Kazuhiko Uehara, Harumi Ueko
Style: Transcription

AutoScroll: Slow | Medium | Fast
Teenage Mutant Ninja Turtles 4: Turtles in Time - Neon Night Riders 
Platform: SNES
Composed by: Mutsuhiko Izumi
Produced by: Kazuhiko Uehara and Harumi Ueko

Guitar Tab Created By: soundsandstuff www.youtube.com/user/soundsandstuff
Completed on 9/27/09



E|-----------------------10-----------17-19--17--------------------------------|
B|-12-------12--10-----------12---13---------------------------------------10--|
G|-------------------11-----------------------------12----------9--11--12------|
D|------10----------------------------------------------10--12-----------------|
A|-----------------------------------------------------------------------------|
E|-----------------------------------------------------------------------------|

====================================================================================== A

E|--------------------------------------------------------------------|
B|-12-------------------12--10------------------------10--------------|
G|-----------9--11--12----------12--11--------11--12------------------|
D|--------12----------------------------------------------------------|
A|--------------------------------------------------------------------|
E|--------------------------------------------------------------------|



E|--------------------------------------------------------------------|
B|----------------------------------------------------------10--------|
G|-9----------------------------9--11------------9--11--12------------|
D|--------10----------9--10--12-----------10--12----------------------|
A|-----------10--12---------------------------------------------------|
E|--------------------------------------------------------------------|



E|--------------------------------------------------------------------|
B|-12--------------------13-15----13--12------------------------------|
G|------------9--11--12-------------------14--------14--12--11--------|
D|--------12----------------------------------------------------------|
A|--------------------------------------------------------------------|
E|--------------------------------------------------------------------|



E|----------------------------------------------------10------12--10--|
B|------------------------------10--------10--13--12------13----------|
G|-------------------9--11--12----------------------------------------|
D|-14-----10--12------------------------------------------------------|
A|--------------------------------------------------------------------|
E|--------------------------------------------------------------------|

====================================================================================================== B

E|---------------------------------------------------------10------12--10------|
B|-13---------------------10--10-12--13--12----10--13--12------13--------------|
G|-------------9--10--12-------------------------------------------------------|
D|--------12-------------------------------------------------------------------|
A|-----------------------------------------------------------------------------|
E|-----------------------------------------------------------------------------|



E|--------12-13----12--10---------------------------------------------|
B|-13----------------------13--10------12--13-------------------------|
G|--------------------------------------------------------------------|
D|--------------------------------------------------------------------|
A|--------------------------------------------------------------------|
E|--------------------------------------------------------------------|



E|---------------------10------12--10--12------18-19--17--------------|
B|-10------10--13--12------13-----------------------------20--18------|
G|--------------------------------------------------------------------|
D|--------------------------------------------------------------------|
A|--------------------------------------------------------------------|
E|--------------------------------------------------------------------|


(This part changes the second time around)
E|-17--20-------------------------------12--12-12-12-----12-----------|
B|----------------------------------15-------------------12-----------|
G|----------------------12------14------------------------------------|
D|----------12--15--14------15----------------------------------------|
A|--------------------------------------------------------------------|
E|--------------------------------------------------------------------|

=============================================================================================================== Repeat

E|-----------------------10-----------17-19--17--------------------------------|
B|-12-------12--10-----------12---13---------------------------------------10--|
G|-------------------11-----------------------------12----------9--11--12------|
D|------10----------------------------------------------10--12-----------------|
A|-----------------------------------------------------------------------------|
E|-----------------------------------------------------------------------------|

====================================================================================== AA

E|--------------------------------------------------------------------|
B|-12-------------------12--10------------------------10--------------|
G|-----------9--11--12----------12--11--------11--12------------------|
D|--------12----------------------------------------------------------|
A|--------------------------------------------------------------------|
E|--------------------------------------------------------------------|



E|--------------------------------------------------------------------|
B|----------------------------------------------------------10--------|
G|-9----------------------------9--11------------9--11--12------------|
D|--------10----------9--10--12-----------10--12----------------------|
A|-----------10--12---------------------------------------------------|
E|--------------------------------------------------------------------|



E|--------------------------------------------------------------------|
B|-12--------------------13-15----13--12------------------------------|
G|------------9--11--12-------------------14--------14--12--11--------|
D|--------12----------------------------------------------------------|
A|--------------------------------------------------------------------|
E|--------------------------------------------------------------------|



E|----------------------------------------------------10------12--10--|
B|------------------------------10--------10--13--12------13----------|
G|-------------------9--11--12----------------------------------------|
D|-14-----10--12------------------------------------------------------|
A|--------------------------------------------------------------------|
E|--------------------------------------------------------------------|

====================================================================================================== BB

E|---------------------------------------------------------10------12--10------|
B|-13---------------------10--10-12--13--12----10--13--12------13--------------|
G|-------------9--10--12-------------------------------------------------------|
D|--------12-------------------------------------------------------------------|
A|-----------------------------------------------------------------------------|
E|-----------------------------------------------------------------------------|



E|--------12-13----12--10---------------------------------------------|
B|-13----------------------13--10------12--13-------------------------|
G|--------------------------------------------------------------------|
D|--------------------------------------------------------------------|
A|--------------------------------------------------------------------|
E|--------------------------------------------------------------------|



E|---------------------10------12--10--12------18-19--17--------------|
B|-10------10--13--12------13-----------------------------20--18------|
G|--------------------------------------------------------------------|
D|--------------------------------------------------------------------|
A|--------------------------------------------------------------------|
E|--------------------------------------------------------------------|



E|-17--20---------------------------22--22-24--24-24-24-----12--------|
B|----------------------20------22--------------------------12--------|
G|----------19--22--21------22----------------------------------------|
D|--------------------------------------------------------------------|
A|--------------------------------------------------------------------|
E|--------------------------------------------------------------------|

=================================================================================== 



Notes:

- Thank you for watching!




Login or Register to remove this ad.