Ads

Teru's Song (Tales from Earthsea) Guitar Tab

Submitted: Jun 19, 2013 by Basisti94

5
Average: 5 (1 vote)
Download | Listen
Game: Tales from Earthsea
Composer(s): Tamiya Terashima
Style: Arrangement, Fingerstyle

This song is also called Teru No Uta, Insert Song

AutoScroll: Slow | Medium | Fast
                            Teru No Uta / Teru's Song


Tales from Earthsea
Composer: Tamiya Terashima
Sung by: Aoi Teshima
Arranged for guitar by Basisti94 (Miro Laaksonen)
17.6.2013


Capo 1
Tempo ~ 74

     Q    E  E  Q    E  E     E  E  S S E  Q    E  E   
E||---------------------0--|--1--0---------0-------0--|
B||----------1--3----3-----|--------3-1-3-------------|
G||--0----0----------------|--------------------------|
D||------------------------|--------------------------|
A||------------------------|--------------------------|
E||------------------------|--------------------------|


  Q    E  E  E  S S Q       E  E  E  E  Q    Q       Q    E  E  E  S S Q     
--3----3--3--0-----------|-----0--------0---------|----------0--------------|
----------------3-1-L----|--3-----1--3------------|-------------3--1--------|
-------------------------|------------------------|--2----2----------2-L----|
-------------------------|------------------------|-------------------------|
-------------------------|------------------------|-------------------------|
-------------------------|------------------------|-------------------------|


  E  E  E  E  Q    Q       Q    E  E  E  E  E  E     E  E  S S E  Q    E  E   
------------------------|----------------------0--|--1--0---------0-------0--|
--------1--0------------|----------1--3--3--3-----|--------3-1-3-------------|
--0--2--------2---------|--0----0-----------------|--------------------------|
------------------------|-------------------------|--------------------------|
------------------------|-------------------------|--------------------------|
------------------------|-------------------------|--------------------------|


  Q    E  E  E  S S Q       E  E  E  E  Q    Q       E  E  E  E  E  S S Q     
--3----3--3--0-----------|-----0--------0---------|-----------0--------------|
----------------3-1-L----|--3-----1--3------------|--------------3--1--------|
-------------------------|------------------------|--2--2--2----------2-L----|
-------------------------|------------------------|--------------------------|
-------------------------|------------------------|--------------------------|
-------------------------|------------------------|--------------------------|


  E  E  E  E  Q    Q               Q    E  E  E  E  E  E   
------------------------|-------|--0----0--0--3--3--0-----|
--------1--0------------|-------|----------------------3--|
--0--2--------2---------|-------|-------------------------|
------------------------|-------|-------------------------|
------------------------|-------|-------------------------|
------------------------|-------|-------------------------|


  E  E  E  E  Q    Q       Q    E  E  Q.     E     E  E  E  S S Q    Q     
--------------0---------|--0----0--0--3------3--|--5--5--3--0-------------|
--1--1--1--3------------|-----------------------|-------------3-3---------|
------------------------|-----------------------|-------------------------|
------------------------|-----------------------|-------------------------|
------------------------|-----------------------|-------------------------|
------------------------|-----------------------|-------------------------|


  Q    E  E  E  E  E  E     E  E  E  E  Q    E  E     Q    E  E  Q    S S E   
--0----0--0--3--3--0-----|--------------0-------0--|--5----5--7--3----0------|
----------------------3--|--1--1--1--3-------------|--------------------3-1--|
-------------------------|-------------------------|-------------------------|
-------------------------|-------------------------|-------------------------|
-------------------------|-------------------------|-------------------------|
-------------------------|-------------------------|-------------------------|


  E  E  E  E  Q    Q               E  E  E  E  H         
-----0--------0---------|-------|-----------------------|
--3-----1--3------------|-------|-----------------------|
------------------------|-------|--------0--------------|
------------------------|-------|--2-----------0--------|
------------------------|-------|--3--------------------|
------------------------|-------|-----3-----3-----------|


  E  E  E  E  H           E  E  E  E  E  E  E  E     E  E  S S E  Q.     E   
-----------------------|-----------------------0--|--1--0---------0------0--|
-----------------------|-----------1--3--3--3-----|--------3-1-3------------|
--------0--------------|--0-----0-----------------|-------------------------|
--2-----------0--------|--------2-----0-----------|--------0------2---------|
--3--------------------|--3-----------------------|--3----------------------|
-----3-----3-----------|-----3-----3--------------|-------------------------|


                                         ^                                    
  E  E  E  E  E  S S Q       E  E  E  E  H           E  E  E  E  E  S S Q     
--3-----3--3--0-----------|-----0--------0--------|-----------0--------------|
-----------------3-1------|--3-----1--3--0--------|--------------3--1--------|
--------0-----------------|--------2-----1--------|--2-----2----------2-L----|
-----------------2--------|--0-----------2--------|-----2-----2--0--3--------|
-----2-----2--0------3----|-----------------------|--0-----------------------|
--0-----------------------|--------------0--------|--------------------------|


  E  E  E  E  H           E  E  E  E  E  E  E  E     E  E  S S E  Q.     E   
-----------------------|-----------------------0--|--1--0---------0------0--|
--------1--0-----------|-----------1--3--3--3-----|--------3-1-3------------|
--0--2--------2--------|--0-----0--------0--------|-------------------------|
-----0-----0--2--------|--------2-----------0-----|--------0------2---------|
--------------0--------|--3-----------2-----------|--3----------------------|
--3--------------------|-----3-----3--------------|-------------------------|


                                         ^                                    
  E  E  E  E  E  S S Q       E  E  E  E  H           E  E  E  E  E  S S Q     
--3-----3--3--0-----------|-----0--------0--------|-----------0--------------|
-----------------3-1------|--3-----1--3--0--------|--------------3--1--------|
--------0-----------------|--------2-----1--------|--2-----2----------2-L----|
-----------------2--------|--0-----------2--------|-----2--2--2--0--3--------|
-----2-----2--0------3----|-----------------------|--0-----------------------|
--0-----------------------|--------------0--------|--------------------------|


  E  E  E  E  H           Q    Q       E  E  E  E  E  E  E  E   
-----------------------|------------|--0-----0--0--3--3--0-----|
--------1--0-----------|------------|-----------------------3--|
--0--2--------2--------|-------2----|--0--------0--------------|
-----0-----0--2--------|--2---------|--------2-----------2-----|
--------------0--------|--3----3----|--3--3-----------2--------|
--3--------------------|------------|--------------0-----------|


  E  E  E  E  E  E  E  E     E  E  E  E  E  E  E  E   
--------------0-----------|--0-----0--0--3--------3--|
--1--1--1--3--------------|--------------------------|
-----------------------0--|-----------0--------0-----|
--------------------2-----|--------2--------2--------|
-----------------3--------|-----3--------------------|
--1-----3-----0-----------|--0-----------0-----------|


  E  E  E  S S E  E  E  E     E  E  E  E  E  E  E  E   
--5--5--3--0---------------|--0-----0--0--3--3--0-----|
-------------3-3--------0--|-----------------------3--|
---------------------0-----|-----------0--------0-----|
------------------0--------|--------2--------2--------|
--3------------------------|-----3--------------------|
--1------------3-----------|--0-----------0-----------|


  E  E  E  E  E  E  E  E     Q    E  E  E  E  S S E   
--------------0--------0--|--5----5--7--3-----0------|
--1--1--1--3--------------|---------------------3-1--|
-----------------------0--|--5----------------0------|
--------------------2-----|--3----3--------2---------|
-----------------3--------|--------------------------|
--1-----3-----0-----------|-------------0------------|


  E  E  E  E  E  E  E  E     H           E  E  E  E  H         
-----0--------0-----------|-----------|--0-----3--------------|
--3-----1--3--------------|-----------|--1-----------3--------|
-----------2-----------2--|--1--------|-----0-----0-----------|
--0-----3-----------2-----|--2--------|-----------------------|
--0--------------2--------|--2--------|--3-----------3--------|
--------------0-----------|--0--------|-----------------------|


  E  E  E  E  H           E  E  E  E  E  E  E  E     E  E  S S E  Q.     E   
--0-----3--------------|-----------------------0--|--1--0---------0------0--|
--1-----------3--------|-----------1--3--3--3-----|--------3-1-3------------|
-----0-----0-----------|--0--0--0--------0--------|-------------------------|
-----------------------|--------2-----------------|--------0------2---------|
--3-----------3--------|--3-----------2-----------|--3----------------------|
-----------------------|-----3-----3--------------|-------------------------|


                                         ^                                     
  E  E  E  E  E  S S Q       E  E  E  E  H           E  E  E  E  E  S S E  E   
--3-----3--3--0-----------|-----0--------0--------|-----------0---------------|
-----------------3-1------|--3-----1--3--0--------|--------------3--1---------|
--------0-----------------|--------2-----1--------|--2--2--2----------2-L-----|
-----------------2--------|--0-----------2--------|-----2-----2--0--3------3--|
-----2-----2--0------3----|-----------------------|--0------------------------|
--0-----------------------|--------------0--------|---------------------------|


  E  E  E  E  Q    E  E     E  E  E  E  E  E  E  E     E  E  S S E  Q.     E   
-------------------------|-----------------------0--|--1--0---------0------0--|
--------1--0-------------|-----------1--3--3--3-----|--------3-1-3------------|
--0--2--------2----------|--0-----0-----------------|-------------------------|
-----0-----0--2-------0--|--2-----------------------|--------0------2---------|
--------------0----3-----|--3-----3-----2-----2-----|--3----------------------|
--3----------------------|-----3-----3-----3--------|-------------------------|


                                         ^                                     
  E  E  E  E  E  S S Q       E  E  E  E  E  E  Q       E  E  E  E  E  E  Q     
--3-----3--3--0-----------|-----0--------0----------|-----------0-------------|
-----------------3-1------|--3-----1--3--0----------|--------------3--1-------|
--------0-----------------|--------2-----1----------|--2--2--2-----------2----|
-----------------2--------|--0-----------2----------|-----2-----2--0--3-------|
-----2-----2--0------3----|-----------------2-------|--0----------------------|
--0-----------------------|--------------0-----0----|-------------------------|


  E  E  E  E  H           Q    Q       E  E  E  E  E  E  E  E   
-----------------------|------------|--0-----0--0--3--3--0-----|
--------1--0-----------|------------|-----------------------3--|
--0--2--------2--------|-------2----|--0--------0-----------0--|
-----0-----0--2--------|--2----2----|--------2-----------2-----|
--------------0--------|--3----3----|--3--3-----------2--------|
--3--------------------|------------|--------------0-----------|


  E  E  E  E  E  E  E  E     E  E  E  E  E  E  E  E   
--------------0-----------|--0-----0--0--3--3--3--3--|
--1--1--1--3--------------|--------------------------|
-----------------------0--|-----------0--------0-----|
--------------------2-----|--------2--------2-----2--|
-----------------3--------|-----3--------------------|
--1-----3-----0-----------|--0-----------0-----------|


  E  E  E  S S E  E  E  E     E  E  E  E  E  E  E  E   
--5--5--3--0---------------|--0-----0--0--3--3--0-----|
-------------3-3-----------|-----------------------3--|
------------------------0--|-----------0-----------0--|
---------------------0-----|--------2-----------2-----|
--3---------------2--------|-----3-----------2--------|
--1------------3-----------|--0-----------0-----------|


  E  E  E  E  E  E  E  E     Q    E  E  E  E  S S E   
--------------0--------0--|--5----5--7--3-----0------|
--1--1--1--3--------------|---------------------3-1--|
-----------------------0--|--5----------0-----0------|
--------------------2-----|--3----3--------2---------|
-----------------3--------|--------------------------|
--1-----3-----0-----------|-------------0------------|


  E  E  E  E  E  E  E  E     H           E  E  E  E  H         
-----0--------0-----------|-----------|-----------------------|
--3-----1--3-----------0--|-----------|-----------------------|
--------------------2-----|--1--------|--------0--------------|
-----0-----0--2--2--------|--2--------|--2-----------0--------|
--0-----0-----------------|--2--------|--3--------------------|
--------------0-----------|--0--------|-----3-----3-----------|


                                                  ^                  
  E  E  E  E  H           E  E  E  E  H           W                  
-----------------------|-----------------------|-------------------||
-----------------------|-----------------------|--1----------------||
--------0--------------|--------0--------------|--0----------------||
--2-----------0--------|--2-----------0--------|--2----------------||
--3--------------------|--3--------------------|--3----------------||
-----3-----3-----------|-----3-----3-----------|-------------------||



Aoi Teshima almost compensates the fact that Goro Miyazaki's movies are not
quite as good as his father's


Duration Legend
---------------
W - whole
H - half
Q - quarter
E - 8th
S - 16th
T - 32nd
X - 64th
. - note dotted
|-n-|  - n-tuplets


Tablature Legend
----------------
L - tied note
x - dead note
g - grace note
(n) - ghost note
> - accentuded note
NH - natural harmonic
AH - artificial harmonic
TH - tapped harmonic
SH - semi harmonic
PH - pitch harmonic
h - hammer on
p - pull off
b - bend
s - slide
/ -  slide into from below or out of upwards
\ -  slide into from above or out of downwards
~ - vibrato
W - wide vibrato
tr - trill
TP - tremolo picking
T - tapping
S - slap
P - pop
< - fade in
^ - brush up
v - brush down
Login or Register to remove this ad.