Viking Spirits (Tactics Ogre: Let Us Cling Together) Guitar Tab

Submitted: Jul 19, 2012 by Lemoncobbler

5
Average: 5 (3 votes)
Download | Listen
Game: Tactics Ogre: Let Us Cling Together
Composer(s): Hitoshi Sakimoto, Masaharu Iwata
Style: Arrangement, Fingerstyle

AutoScroll: Slow | Medium | Fast
                                Viking Spirits                                  


                                                
Tactics Ogre, Let us Cling Together
Composed by: Hitoshi Sakimoto, Masaharu Iwata
Arranged By Lemoncobbler
July 19th, 2012



     Q    E  E  E  E     E  S E  S E  E   E     E  S E  S E  E  E   
E||-------------------|----------------------|---------------------|
B||-------------------|----------------------|---------------------|
G||-------------------|----------------------|---------------------|
D||-------------0-----|----------------------|---------------0-----|
A||----------0-----0--|------------0---------|------------0-----0--|
D||--0----------------|--5----5-------9s--5--|--0----0-------------|


  E  S E  S E  E   E     Q    Q    Q       Q    E  E  E  E   
----------------------|-----------------|----------0--1--3--|
----------------------|-----------------|--3----3-----------|
----------------------|------------2----|--2----------------|
----------------------|--0--------------|--0----------0-----|
------------0---------|--0--------------|--0-------0-----0--|
--5----5-------9s--5--|--0--------------|--0----------------|


  E  E  E  E  E   E     Q    E  E  E  E     E  E  E  E  E   E   
--3------------------|----------0--1--5--|--7------------------|
-----3---------------|--3----3-----------|-----8---------------|
--------4------------|--2----------------|--0-----7------------|
--5------------------|--0----------0-----|---------------------|
-----------0---------|--0-------0-----0--|-----------0---------|
--------------9s--5--|--0----------------|--------------9s--5--|


  Q    E  E  E  E     E  E  E  E  E   E     Q    E  E  E  E   
----------0--1--3--|--3------------------|----------0--1--5--|
--3----3-----------|-----3---------------|--3----3-----------|
--2----------------|--------4------------|--2----------------|
--0----------0-----|--5------------------|--0----------0-----|
--0-------0-----0--|-----------0---------|--0-------0-----0--|
--0----------------|--------------9s--5--|--0----------------|


  E  E  E  E  Q       Q    E  E  E  E     Q    E  E  Q       Q    E  E  E  E   
--7----------------|--5----------8-----|--7----5-----3----|--5----------------|
-----8--------3----|-------------------|------------------|-------------------|
--0-----7----------|-------------------|------------------|-------------------|
-------------------|-------------0-----|------------------|-------------0-----|
-----------0-------|----------0-----0--|----------0--2----|----------0-----0--|
-------------------|--0----------------|--5---------------|--0----------------|


  E.  E.  E  E  E     Q    E  E  E  E     Q    E  E  Q       Q    E  E  E  E   
-------------------|--5----------8-----|--7----5-----3----|--5----------------|
--3-------------3--|-------------------|------------------|-------------6-----|
-------------------|-------------------|------------------|-------------------|
-------------------|-------------0-----|------------------|-------------0-----|
----------0--2-----|----------0-----0--|----------0--2----|----------0-----0--|
--5---5------------|--0----------------|--5---------------|--0----------------|


  E.  E.  E  E  E     Q    E  E  E  E     Q    E  E  Q       Q    E  E  E  E   
--3----------------|--5----------8-----|--7----5-----3----|--5----------------|
----------------3--|-------------------|------------------|-------------------|
----------0--------|-------------------|------------------|-------------------|
-------------2-----|-------------0-----|------------------|-------------0-----|
--3---3---------3--|----------0-----0--|----------0--2----|----------0-----0--|
-------------------|--0----------------|--5---------------|--0----------------|


  E.  E.  E  E  E     Q    E  E  E  E     Q    E  E  Q       E.  E.  E  E  E   
-------------------|--5----------8-----|--7----5-----3----|-------------------|
--3-------------3--|-------------------|------------------|--6----------------|
-------------------|-------------------|------------------|-------------5-----|
-------------------|-------------0-----|------------------|-------------------|
----------0--2-----|----------0-----0--|----------0--2----|-------------0-----|
--5---5------------|--0----------------|--5---------------|--3---3---5-----3--|


  E.  E.  E  E  E     E.  E.  E  E  E     E.  E.  E  E  E     Q    Q    E  E   
-------------------|-------------------|-------------------|------------------|
--3----------------|-------------------|-------------------|------------------|
--2----------------|----------0--------|----------------0--|-------0----------|
--0----------0-----|--3----------------|--1----------1-----|--3---------------|
--0-------0-----0--|-------------3-----|--3---3---3-----3--|--3---------3-----|
--0---0------------|--3---3---------3--|-------------------|--3------------3--|


  E.  E.  E  E  E     E.  E.  E  E  E     E.  E.  E  E  E     E.  E.  E  E  E   
-------------------|-------------------|-------------------|-------------------|
-------------------|-------------------|----------4--------|-------------------|
-------------------|----------0--2-----|--5----------5-----|----------0--------|
--1-------0--1-----|--3----------------|----------------5--|--3----------------|
--3---3---------3--|-------------3-----|--3---3---------3--|-------------3-----|
-------------------|--3---3---------3--|-------------------|--3---3---------3--|


  E.  E.  E  E  E     E.  E.  E  E   E     E.  E.  E  E  E     Q    Q    E  E   
-------------------|--------------------|-------------------|------------------|
-------------------|----------0---------|-------------------|-------0----------|
-------------------|--0-----------------|----------------2--|--0---------------|
--1-------0--1-----|-------------0------|--3-------0--3-----|------------0-----|
--3---3---------3--|----------0---------|----------------0--|------------------|
-------------------|--5---5------9s--5--|--0---0------------|--5------------5--|


  E.  E.  E  E  E     E  E  E  E  E  E     E.  E.  E  E  E     Q    Q    Q     
-------------------|--------------------|-------------------|-----------------|
-------------------|--------------------|-------------------|------------0----|
-------------------|--0-----------0-----|--2----------------|--0--------------|
--3----------0-----|-----0--2--4-----7--|-------------0--L--|-------7---------|
----------0-----0--|--------------------|----------0-----0--|-----------------|
--0---0------------|--5--------------5--|--0---0------------|--5--------------|


  E.  E.  S S Q       Q    E  E  E  E     Q    E  E  Q       E.  E.  E  E  E   
-------------------|--5----------8-----|--7----5-----3----|--1----------------|
--0-----------3----|-------------------|------------------|-------------1-----|
--1----------------|-------------------|------------------|-------------------|
--2----------------|-------------0-----|------------------|-------------------|
--2----------------|----------0-----0--|----------0--2----|----------3--0-----|
--2---2---2---2----|--0----------------|--5---------------|--3---3---------3--|


  E.  E.  E  E  E     E.  E.  E  E  E     Q    Q    Q       E.  E.  E  E  E   
--3-------------0--|--1----------3-----|--0--------------|-------------------|
-------------3-----|-------------------|-------3----1----|--3----------------|
-------------------|-------------------|-----------------|-------------------|
----------0--------|-------------0-----|--2--------------|-------------0-----|
-------------2-----|----------0-----0--|--3--------------|----------0-----0--|
--5---5---------5--|--0----------------|-----------------|--0---0------------|


   E.  E.  E  E  E     Q    E  E  E  E     Q    E  E  Q       Q    E  E  E  E   
--10----------------|--5----------8-----|--7----5-----3----|--5----------------|
--------------------|-------------------|------------------|-------------------|
-----------------7--|-------------------|------------------|-------------------|
---0---0---------0--|-------------0-----|------------------|-------------0-----|
-----------7--8-----|----------0-----0--|----------0--2----|----------0-----0--|
--------------------|--0----------------|--5---------------|--0----------------|


  E.  E.  E  E  E     Q    E  E  E  E     Q    E  E  Q       Q    E  E  E  E   
-------------------|--5----------8-----|--7----5-----3----|--5----------------|
--3-------------3--|-------------------|------------------|-------------6-----|
-------------------|-------------------|------------------|-------------------|
-------------------|-------------0-----|------------------|-------------0-----|
----------0--2-----|----------0-----0--|----------0--2----|----------0-----0--|
--5---5------------|--0----------------|--5---------------|--0----------------|


  E.  E.  E  E  E     Q    E  E  E  E     Q    E  E  Q       Q    E  E  E  E   
--3----------------|--5----------8-----|--7----5-----3----|--5----------------|
----------------3--|-------------------|------------------|-------------------|
----------0--------|-------------------|------------------|-------------------|
-------------2-----|-------------0-----|------------------|-------------0-----|
--3---3---------3--|----------0-----0--|----------0--2----|----------0-----0--|
-------------------|--0----------------|--5---------------|--0----------------|


  E.  E.  E  E  E     Q    E  E  E  E     Q    E  E  Q       E.  E.  E  E  E   
-------------------|--5----------8-----|--7----5-----3----|-------------------|
--3-------------3--|-------------------|------------------|--6----------------|
-------------------|-------------------|------------------|-------------5-----|
-------------------|-------------0-----|------------------|-------------------|
----------0--2-----|----------0-----0--|----------0--2----|-------------0-----|
--5---5------------|--0----------------|--5---------------|--3---3---5-----3--|


  E.  E.  E  E  E     E.  E.  E  E  E     E.  E.  E  E  E     Q    Q    E  E   
-------------------|-------------------|-------------------|------------------|
--3----------------|-------------------|-------------------|------------------|
--2----------------|----------0--------|----------------0--|-------0----------|
--0----------0-----|--3----------------|--1----------1-----|--3---------------|
--0-------0-----0--|-------------3-----|--3---3---3-----3--|--3---------3-----|
--0---0------------|--3---3---------3--|-------------------|--3------------3--|


  E.  E.  E  E  E     E.  E.  E  E  E     E.  E.  E  E  E     E.  E.  E  E  E   
-------------------|-------------------|-------------------|-------------------|
-------------------|-------------------|----------4--------|-------------------|
-------------------|----------0--2-----|--5----------5-----|----------0--------|
--1-------0--1-----|--3----------------|----------------5--|--3----------------|
--3---3---------3--|-------------3-----|--3---3---------3--|-------------3-----|
-------------------|--3---3---------3--|-------------------|--3---3---------3--|


  E.  E.  E  E  E     E.  E.  E  E   E     E.  E.  E  E  E     Q    Q    E  E   
-------------------|--------------------|-------------------|------------------|
-------------------|----------0---------|-------------------|-------0----------|
-------------------|--0-----------------|----------------2--|--0---------------|
--1-------0--1-----|-------------0------|--3-------0--3-----|------------0-----|
--3---3---------3--|----------0---------|----------------0--|------------------|
-------------------|--5---5------9s--5--|--0---0------------|--5------------5--|


  E.  E.  E  E  E     E  E  E  E  E  E     E.  E.  E  E  E     Q    Q    Q     
-------------------|--------------------|-------------------|-----------------|
-------------------|--------------------|-------------------|------------0----|
-------------------|--0-----------0-----|--2----------------|--0--------------|
--3----------0-----|-----0--2--4-----7--|-------------0--L--|-------7---------|
----------0-----0--|--------------------|----------0-----0--|-----------------|
--0---0------------|--5--------------5--|--0---0------------|--5--------------|


  H.             
---------------||
--0------------||
--1------------||
--2------------||
--2------------||
--2------------||




Duration Legend
---------------
W - whole
H - half
Q - quarter
E - 8th
S - 16th
T - 32nd
X - 64th
. - note dotted
|-n-|  - n-tuplets


Tablature Legend
----------------
L - tied note
x - dead note
g - grace note
(n) - ghost note
> - accentuded note
NH - natural harmonic
AH - artificial harmonic
TH - tapped harmonic
SH - semi harmonic
PH - pitch harmonic
h - hammer on
p - pull off
b - bend
br - bendRelease
pb - preBend
pbr - preBendRelease
brb - bendReleaseBend
\n/ - tremolo bar dip
\n - tremolo bar dive
-/n - tremolo bar Release up
/n\ - tremolo bar inverted dip
/n - tremolo bar return
-\n - tremolo bar Release down
S - shift slide
s - legato slide
/ -  slide into from below or out of upwards
\ -  slide into from above or out of downwards
~ - vibrato
W - wide vibrato
tr - trill
TP - tremolo picking
T - tapping
S - slap
P - pop
< - fade in
^ - brush up
v - brush down
Login or Register to remove this ad.

2 comments on Viking Spirits

awesome! thanks!

5

awesome! thanks!

glad you like it!

glad you like it!