A Cygnet (Tactics Ogre: Let Us Cling Together) Guitar Tab

   						A Cygnet                                     
Tactics Ogre For PSP
Composed by Hitoshi Sakimoto 
Tabbed by Lemoncobbler                       
April 5th 2012

Lead Guitar
     Q     Q     Q     Q       Q    E   S  S  E   E  E   E   
E||-------10----------13----|----------11-13-11--10--8------|
B||--8----------10----------|---------------------------11--|
G||-------------------------|-------------------------------|
D||-------------------------|-------------------------------|
A||-------------------------|-------------------------------|
E||-------------------------|-------------------------------|


  Q     Q     Q     Q       Q    E   S  S  E   E   E   E   
-------10----------17----|----------15-17-15--------------|
--8----------11----------|--------------------18--16--15--|
-------------------------|--------------------------------|
-------------------------|--------------------------------|
-------------------------|--------------------------------|
-------------------------|--------------------------------|


   E  E  E  E   Q     Q        E   E   E   E   Q     Q     
--10--8-----8--10----15----|--15--13------13--15----20----|
---------8-----------------|----------13------------------|
---------------------------|------------------------------|
---------------------------|------------------------------|
---------------------------|------------------------------|
---------------------------|------------------------------|


   Q     Q     Q     Q        Q    Q     E   E   E   E   
--17-----L----------17----|--15---------14--------------|
--------------17----------|-----------------10--11--13--|
--------------------------|-----------------------------|
--------------------------|-----------------------------|
--------------------------|-----------------------------|
--------------------------|-----------------------------|


   E   E   E   E  E  E  E   E      E   E   E   E   E   E   E   E   
---------------------------10--|--15--13--13----------------------|
--13--11--11--10--8-----8------|--------------16--16--15--15------|
---------------------7---------|------------------------------15--|
-------------------------------|----------------------------------|
-------------------------------|----------------------------------|
-------------------------------|----------------------------------|


                     v                                                    
   S  S  E   E   E   E   E   E   E      S  S  E   E   E   Q     S  S  E   
--10-11-10-----------8--------------|--12-13-12------12--15----14-15-17--|
------------11------10--11--10------|------------13----------------------|
----------------12--10----------10--|------------------------------------|
------------------------------------|------------------------------------|
------------------------------------|------------------------------------|
------------------------------------|------------------------------------|


   E   E   E   E   E   E   E   E      E   E   E   E   E   E   E   E   
--18------18------20------20------|--18------18------20------20------|
----------------------------------|----------------------------------|
------18------18------20------20--|------18------18------20------20--|
----------------------------------|----------------------------------|
----------------------------------|----------------------------------|
----------------------------------|----------------------------------|


   E   E   E   E   E   E   E   E      E   E   E   E   E   E   E   E    
--18------18------20------20------|--18------18------20------20------||
----------------------------------|----------------------------------||
------18------18------20------20--|------18------18------20------20--||
----------------------------------|----------------------------------||
----------------------------------|----------------------------------||
----------------------------------|----------------------------------||



Background Guitar
     E  E  E  E  H           E  E  E  E  E  E  E  E     E  E  E  E  H         
E||-----------------------|-----------------------1--|-----------------------|
B||-----------L-----------|--------------------------|-----------------------|
G||--------0--2--3--------|--------0--------0--------|--------------0--------|
D||-----0-----------------|-----0--------0-----3-----|--------1--3-----------|
A||-----------------------|--------------------------|-----1-----------------|
D||--5--------------------|--5-----------------------|--1--------------------|


  E  E  Q    E  E  E  E     E  E  E  E  H           E  E  Q    Q    Q     
-------------------------|-----------------------|-----------------------|
-------------------------|--------1--3--4--------|------------------1----|
-------------------------|-----0-----------------|--------1----3---------|
--------1-------1-----0--|-----------------------|-----1-----------------|
-----1-------------------|--3--------------------|--4--------------------|
--1----------1-----0-----|-----------------------|-----------------------|


  Q    E  E  E  E  Q       E  E  E  E  Q    Q       Q    Q    H         
------------------------|------------------------|---------------------|
-------------0-----2----|------------------------|---------------------|
-------2----------------|-----------0------------|---------------------|
----------------2-------|--------0-----4---------|---------------------|
--0-------0-------------|-----0------------------|---------------------|
------------------------|--0---------------------|--5----3----2--------|


  Q    Q    Q    Q       H        H           H        H         
----------------------|--------------------|--------------------|
----------------------|--------------------|--------------------|
----------------------|--------------------|--------------------|
--1--------------0----|--------------------|--------------------|
------------3---------|--------------------|-----------0--------|
----------------------|--1-----------------|--0-----------------|


  H.           E  E     H.           E  E     H.           E  E   
---------------------|---------------------|---------------------|
---------------------|---------------------|---------------------|
---------------------|---------------------|---------------------|
---------------------|---------------------|---------------------|
------------------1--|------------------1--|------------------1--|
--1------------------|--1------------------|--1------------------|


  H        H          
--------------------||
--------------------||
--------------------||
--------------------||
--------------------||
--1--------3--------||




Duration Legend
---------------
W - whole
H - half
Q - quarter
E - 8th
S - 16th
T - 32nd
X - 64th
. - note dotted
|-n-|  - n-tuplets


Tablature Legend
----------------
L - tied note
x - dead note
g - grace note
(n) - ghost note
> - accentuded note
NH - natural harmonic
AH - artificial harmonic
TH - tapped harmonic
SH - semi harmonic
PH - pitch harmonic
h - hammer on
p - pull off
b - bend
br - bendRelease
pb - preBend
pbr - preBendRelease
brb - bendReleaseBend
\n/ - tremolo bar dip
\n - tremolo bar dive
-/n - tremolo bar Release up
/n\ - tremolo bar inverted dip
/n - tremolo bar return
-\n - tremolo bar Release down
S - shift slide
s - legato slide
/ -  slide into from below or out of upwards
\ -  slide into from above or out of downwards
~ - vibrato
W - wide vibrato
tr - trill
TP - tremolo picking
T - tapping
S - slap
P - pop
< - fade in
^ - brush up
v - brush down
Login or Register to remove this ad.