Gametabs
Home
Tabs
Random

Zombie Panic

Average rating: 5.000

1 ratings

Composer:

Tabber:

Style:

Instrument:

Created: March 29, 2012 at 12:00 AM

            Zombie Panic
Zombies Ate My Neighbours
Composed by Joe McDermott
Cillian Ebbs
24/2/12


Guitar 1

e--------------------------------------------
B------------9-10-11-10-9--------------------
G-8-10-11-12--------------12-11-10-----------
D-------------------------------------------- X4
A--------------------------------------------
E--------------------------------------------

e---------------------------11----------------------
B--9-11-9-11-12-11--9-11-12--------8-9-10-11-10-9---
G-8----------------------------8-8------------------
D---------------------------------------------------
A---------------------------------------------------
E---------------------------------------------------


e-----------------------11-------------------
B--9-11-9-12-11-9-11-12---------12-11-9-7----  Alternate strum last 4 notes
G-8-------------------------8-8--------------
D--------------------------------------------
A--------------------------------------------
E--------------------------------------------

e--------------------------------------------
B----9-7--9-9-9h11-9-7--9-7-----7----7----7--
G-------8------------------8---8-8--8-8--8-8-
D--------------------------------------------
A--------------------------------------------
E--------------------------------------------

e-------------------------------------9s11--- Alternate strum the 9
B----9-9-7-7-9-11-9-7-9--11-11-11-11---------
G--------------------------------------------
D--------------------------------------------
A--------------------------------------------
E--------------------------------------------


Guitar 2

e--------------------------------------------
B--------------------------------------------
G--------------------------------------------
D--------------------8----------------------- Repeat the 6-9-8 part 4 times
A---6------------6-9-------8-----------------
E-------6--------------6-9-------------------

e-------------------------------------------------------------
B-------------------------------------------------------------
G--------8-------------8--------------------------------------3x
D----6-9------8---6-9-------8--------8-------------8----------
A---------6-9-----------6-9------6-9-------8---6-9-------8----
E--------------------------------------6-9-----------6-9------

e-------------------------------------------------------------
B-------------------------------------------------------------
G--------8-------------8--------------10----------------------
D----6-9------8---6-9-------8----8-12-----------10------------
A---------6-9-----------6-9----------------8-11------4-4-4-6--
E-------------------------------------------------------------

And that's it pretty much it! Just repeat along with the song :)
        
Comments

No comments yet