Gametabs
Home
Tabs
Random

Pyramid of Fear

Average rating: 5.000

2 ratings

Composer:

Tabber:

Style:

Instrument:

Created: July 08, 2009 at 12:00 AM

                        Zombies Ate My Neighbors - Pyramid of Fear BASS TAB
                          Song by Joe McDermott

                  Tabbed by auriplane ([email protected])


Four-string bass, standard tuning.

    Part A

G |----------------|----------------|----------------|----------------|
D |----------------|----------------|----------------|----------------|
A |--------0---4---|--------0-0-4-4-|--------0---4---|--------0-0-4-4-|
E |2---4-4-------2-|--2-4-4---------|2-2-4-4-------2-|--2-4-4---------|

G |----------------|----------------|----------------|----------------|
D |----------------|----------------|----------------|----------------|
A |--------0---4---|--------0---4---|--------0---4---|--------0-0-4-4-|
E |2-2-4-4-------2-|--2-4-4---------|2---4---------2-|--2-4-4---------|

G |----------------|----------------|----------------|----------------|
D |----------------|4-4-2-2-0-0-----|--4---4---4---4-|--4---4---4---4-|
A |--------0-0-4-4-|------------4-4-|2---2---2---2---|----------------|
E |2-2-4-4---------|----------------|----------------|2---2---2---2---|

G |----------------|----------------|
D |----------------|----------------|
A |----------------|----------------|
E |2-2-4-4-5-5-4-4-|2---4---5---4---|


    Part B

    Rest for four measures.

G |----------------|----------------|----------------|----------------|
D |4-4-4-------4---|4---6---7---6---|4-4-4-------4-4-|4---6---7---6---|
A |------4-4-4-----|----------------|------5-5-5-----|----------------|
E |----------------|----------------|----------------|----------------|

G |----------------|----------------|----------------|----------------|
D |4-4-4-------4-4-|4-4-6---7---6---|----------------|----------------|
A |------6-6-6-----|----------------|----------------|----------------|
E |----------------|----------------|----------------|----------------|

G |----------------|----------------|----------------|----------------|
D |----------------|----------------|----------------|----------------|
A |2-----2-------2-|------2-------2-|5-0-2-5---0-2-5-|--0-2-5---0-2-5-|
E |--2-4-----2-4---|--2-4-----2-4---|----------------|----------------|

                                     pp    cresc.     f
G |----------------|----------------|4---2-4-----2-4-|--4-2-2-1-1-0-0-|
D |----------------|----------------|--4-------4-----|----------------|
A |----------------|----------------|----------------|----------------|
E |----------------|----------------|----------------|----------------|

G |----------------|----------------|----------------|--------------------|
D |4---2-4-----2-4-|----2-4-----2-4-|----2-4-----2-4-|----2-4-----2-4-----|
A |--4-------4-----|--4-------4-----|--4-------4-----|--4-------4---------|
E |----------------|----------------|----------------|--------------------|


The last measure is 9/8 for some reason, before it repeats to the start.

"pp    cresc.    f" just means start quiet, and get back to normal
volume by the next measure.

        
Comments

@BooDoo (July 08, 2009 at 9:56 PM)

Where did you ever get the brilliant idea to transcribe this bass line? :)

No guitar with me at work today, but I did practice this on keys at lunch- thanks for that!