Gametabs
Home
Tabs
Random

Peaceful Academy

Average rating: 5.000

2 ratings

Composer:

Tabber:

Style:

Instrument:

Created: June 21, 2017 at 12:00 AM

                                            Peaceful School


     E  E  Q    Q    Q       E  E  Q    Q    Q       E  E  Q    Q    Q     
E||--2--3--5---------5----|--------2---------2----|------------------2----|
B||-------------5---------|--3--5-----------------|--0--2--3--------------|
G||-----------------------|-------------2---------|-------------2---------|
D||--0--------------------|-----------------------|-----------------------|
A||-------------4---------|--2----------0---------|-----------------------|
E||-----------------------|-----------------------|--3----------2---------|


  E  E  E  E  E  E  Q       E  E  Q    Q    Q       E  E  Q    Q    Q     
--3--2--0-----------0----|--2--3--5---------5----|--------2---------2----|
-----------3--2--3-------|-------------5---------|--3--5-----------------|
-------------------------|-----------------------|-------------2---------|
-------------------------|--0--------------------|-----------------------|
--------------0----------|-------------4---------|--2----------0---------|
--0----------------------|-----------------------|-----------------------|


  E  E  E  E  E  E  E  E     Q    Q    Q    Q       Q    Q    Q    Q     
--3--2--0-----------0--2--|--0-------------------|----------------------|
-----------3--2--3--------|-------2----3---------|--0----0----2----2----|
--------------------------|-----------------2----|----------------------|
--------------------------|------------0---------|----------------------|
--------------0-----------|--0-------------------|--2----2----4----4----|
--3-----------------------|----------------------|----------------------|


  Q    Q    Q    Q       Q    Q    Q    Q       H.           Q     
-------0----2---------|----------------------|--------------------|
--3-------------------|--0----0----2----2----|--3-----------------|
-----------------2----|----------------------|---------------2----|
--0-------------------|----------------------|--0-----------------|
----------------------|--2----2----4----4----|--------------------|
----------------------|----------------------|--------------------|


  Q    Q    Q    Q       Q    Q    Q    Q       Q    Q    Q    Q     
----------------------|-------0----2---------|----------------------|
--0----0----2----2----|--3-------------------|--0----0----2----2----|
----------------------|-----------------2----|----------------------|
----------------------|--0-------------------|----------------------|
--2----2----4----4----|----------------------|--2----2----4----4----|
----------------------|----------------------|----------------------|


  H.           Q       Q    Q    Q    Q       Q    Q    Q    Q     
--------------------|------------0----0----|-------3----5---------|
--3-----------------|--3----3--------------|--6-------------------|
--------------------|----------------------|-----------------5----|
--0-----------------|--0----0----2----2----|--3-------------------|
--------------------|----------------------|----------------------|
--------------------|----------------------|----------------------|


  Q    Q    Q    Q       H.           Q       Q    Q    Q    Q     
------------0----0----|--1-----------------|------------0----0----|
--3----3--------------|---------------1----|--3----3--------------|
----------------------|--------------------|-----------------0----|
--0----0----2----2----|--3-----------------|--0----3----2---------|
----------------------|--------------------|----------------------|
----------------------|--------------------|----------------------|


  Q    Q    Q    Q       Q    Q    Q    Q       Q    Q    Q    Q     
-------3----5---------|------------0----0----|--1-------------------|
--6-------------------|--3----3--------------|-------1--------------|
-----------------5----|-----------------0----|----------------------|
--3-------------------|--0----3----2---------|--3-------------------|
----------------------|----------------------|----------------------|
----------------------|----------------------|------------1---------|


  E  E  Q    Q    Q       E  E  Q    Q    Q       E  E  Q    Q    Q     
--2--3--5----0----5----|-----0--2---------2----|------------------2----|
--3----------2---------|--3--------------------|--0--2--3--------------|
-----------------------|--4----------2---------|-------------2---------|
--0--------------------|-----------------------|-----------------------|
-------------4---------|--2----------0---------|-----------------------|
-----------------------|-----------------------|--3----------2---------|


  E  E  E  E  E  E  Q       E  E  Q    Q    Q       E  E  Q    Q    Q     
--3--2--0-----------0----|--2--3--5----0----5----|-----0--2---------2----|
-----------3--2--3-------|--3----------2---------|--3--------------------|
--0-----------2----------|-----------------------|--4----------2---------|
-------------------------|--0--------------------|-----------------------|
--------------0----------|-------------4---------|--2----------0---------|
--0----------------------|-----------------------|-----------------------|


  E  E  E  E  E  E  E  E     Q    Q    Q    Q       Q    Q    Q    Q     
--3--2--0-----------0--2--|--0-------------------|----------------------|
--0--------3--2--3--------|-------2----3---------|--0----0----2----2----|
--------------------------|-----------------2----|----------------------|
--------------------------|------------0---------|-------0---------2----|
--------------0-----------|--0---------0---------|--2----2----4----4----|
--3-----------------------|----------------------|----------------------|


  Q    Q    Q    Q       Q    Q    Q    Q       Q    Q    Q    Q     
-------0----2---------|----------------------|----------------------|
--3-------------------|--0----0----2----2----|--3-------------------|
-----------------2----|----------------------|-------2---------2----|
--0-------------------|-------0---------2----|--0-------------------|
----------------------|--2----2----4----4----|------------0---------|
----------------------|----------------------|----------------------|


  Q    E  E  Q    E  E     Q    Q    Q    Q       Q    E  E  Q    E  E   
------------------------|-------0----2---------|------------------------|
--0----0-----2----2-----|--3-------------------|--0----0-----2----2-----|
------------------------|-----------------2----|------------------------|
------------------------|--0-------------------|------------------------|
--2----0--2--4----2--4--|----------------------|--2----0--2--4----2--4--|
------------------------|----------------------|------------------------|


  Q    Q    Q    Q       Q    E  E  Q    E  E     Q    Q    Q    Q     
----------------------|-------------0----0-----|-------3----5---------|
--3-------------------|--3----3----------------|--6-------------------|
-------2--------------|------------------0-----|-----------------5----|
--0-------------------|--0----3--0--2----0--2--|--3-------------------|
------------0---------|-------3----------------|----------------------|
----------------------|------------------------|----------------------|


  Q    E  E  Q    E  E     Q    Q    Q    Q       Q    E  E  Q    E  E   
-------------0----0-----|--1-------------------|-------------0----0-----|
--3----3----------------|-------1---------1----|--3----3----------------|
------------------0-----|----------------------|------------------0-----|
--0----3--0--2----0--2--|--3-------------------|--0----3--0--2----0--2--|
-------3----------------|----------------------|-------3----------------|
------------------------|------------1---------|------------------------|


  Q    Q    Q    Q       Q    E  E  Q    E  E     Q    Q    Q    Q     
-------3----5---------|-------------0----0-----|--1-------------------|
--6-------------------|--3----3----------------|-------1--------------|
-----------------5----|------------------0-----|----------------------|
--3-------------------|--0----3--0--2----0--2--|--3-------------------|
----------------------|-------3----------------|----------------------|
----------------------|------------------------|------------1---------|


  E  E  Q    Q    Q       E  E  Q    Q    Q       E  E  Q    Q    Q     
--2--3--5----0----5----|-----0--2---------2----|------------------2----|
--3----------2---------|--3--------------------|--0--2--3--------------|
-----------------------|--4----------2---------|-------------2---------|
--0--------------------|-----------------------|-----------------------|
-------------4---------|--2----------0---------|-----------------------|
-----------------------|-----------------------|--3----------2---------|


  E  E  E  E  E  E  Q       E  E  Q    Q    Q       E  E  Q    Q    Q     
--3--2--0-----------0----|--2--3--5----0----5----|-----0--2---------2----|
-----------3--2--3-------|--3----------2---------|--3--------------------|
--0-----------2----------|-----------------------|--4----------2---------|
-------------------------|--0--------------------|-----------------------|
--------------0----------|-------------4---------|--2----------0---------|
--0----------------------|-----------------------|-----------------------|


  E  E  E  E  E  E  E  E     Q    Q    Q    Q       E  E  E  E  E  E  E  E   
--3--2--0-----------0--2--|--0-------------------|--3--2--0-----------0--2--|
--0--------3--2--3--------|-------2----3---------|--0--------3--2--3--------|
--------------------------|-----------------2----|--------------------------|
--------------------------|------------0---------|--------------------------|
--------------0-----------|--0---------0---------|--------------0-----------|
--3-----------------------|----------------------|--3-----------------------|


  Q    Q    Q    Q       E  E  E  E  E  E  E  E     E  E  E  E  H          
--0-------------------|--3--2--0--7--5--3--2--0--|--0--------------------||
-------2----3---------|--0-----------------------|-----------3--3--------||
-----------------2----|--------------------------|--------2--------------||
------------0---------|--------------------------|-----2--------4--------||
--0---------0---------|--------------0-----------|--0-----------5--------||
----------------------|--3-----------------------|-----------------------||

        
Comments

@thedstring (June 29, 2017 at 12:02 PM)

Here's a video of me trying this song out for the first time, you'll get an idea of how difficult it is as well as some direction for any difficult parts:

https://youtu.be/LleV6WB65Ls