Gametabs
Home
Tabs
Random

walt

Average rating: 5.000

2 ratings

Composer:

Tabber:

Style:

Instrument:

Created: October 15, 2014 at 12:00 AM

                                    walt
                                
Zankyou no Terror
Yoko Kanno
Guitar arrangement by Basisti94 (Miro Laaksonen)
15.10.2014


I recently finished this anime called Zankyou no Terror and the soundtrack
for it was absolutely gorgeous. You should all check it out. Surprisingly enough,
it is directly influenced by Icelandic bands like Sigur Ros, mum, and Olafur Arnalds,
which I all love. Some tracks even used Icelandic vocals, which was very interesting
from an anime.  


The time signature changes between 5/4 and 3/4

Tempo ~ 120
       |--3--|  |--3--|  |--3--|  |--3--|  |--3--|   
       E  E  E  E  E  E  E  E  E  E  E  E  E  E  E   
D#||---5-----5--5-----5--3--------5-----5--3--------|
A#||------5--------5--------7--5-----5--------7--5--|
F#||*-----------------------------------------------|
C#||*-----------------------------------------------|
G#||---3--------------------------------------------|
D#||------------------------------------------------|


  |--3--|  |--3--|  |--3--|  |--3--|  |--3--|     |--3--|                     
  E  E  E  E  E  E  E  E  E  E  E  E  E  E  E     E  E  E  H.           Q     
--5-----5--5-----5--3--------5-----5--5-----5--|--5-----5--4-----------------|
-----5--------5--------7--5-----5--------5-----|-----5-----------------------|
-----------------------------------------------|-----------------------------|
--0--------------------------------------------|--2--------------------------|
-----------------------------------------------|-----------------------------|
-----------------------------------------------|-----------------------------|


  |--3--|  |--3--|  |--3--|  |--3--|  |--3--|   
  E  E  E  E  E  E  E  E  E  E  E  E  E  E  E   
--5-----5--5-----5--3--------5-----5--3--------|
-----5--------5--------7--5-----5--------7--5--|
-----------------------------------------------|
-----------------------------------------------|
--3--------------------------------------------|
-----------------------------------------------|


  |--3--|  |--3--|  |--3--|  |--3--|  |--3--|     |--3--|                       
  E  E  E  E  E  E  E  E  E  E  E  E  E  E  E     E  E  E  H.           Q       
--5-----5--5-----5--3--------5-----5--5-----5--|--5-----5--4------------------||
-----5--------5--------7--5-----5--------5-----|-----5------------------------||
-----------------------------------------------|-----------------------------*||
--0--------------------------------------------|--2--------------------------*||
-----------------------------------------------|------------------------------||
-----------------------------------------------|------------------------------||


  |--3--|  |--3--|  |--3--|  |--3--|     |--3--|  |--3--|  |--3--|  |--3--|   
  E  E  E  E  E  E  E  E  E  E  E  E     E  E  E  E  E  E  E  E  E  E  E  E   
--------------------------------------|--------------------------------------|
-----0--------0--------0--------0-----|-----0--------0--------0--------0-----|
--------------------------------------|--------------------------------------|
--2-----2--2-----2--2-----2--2-----2--|--2-----2--2-----2--2-----2--2-----2--|
-----------2--------------------------|-----------0--------------------------|
--0-----------------------------------|--0-----------------------------------|


  |--3--|  |--3--|  |--3--|  |--3--|     |--3--|  |--3--|  |--3--|  |--3--|   
  E  E  E  E  E  E  E  E  E  E  E  E     E  E  E  E  E  E  E  E  E  E  E  E   
-----0--------0--------0--------0-----|--------------------------------------|
--------------------------------------|-----3--------3--------3--------3-----|
--------------------------------------|--------------------------------------|
--2-----2--2-----2--2-----2--2-----2--|--2-----2--2-----2--2-----2--2-----2--|
-----------3--------------------------|-----------2--------------------------|
--0-----------------------------------|--0-----------------------------------|


  |--3--|  |--3--|  |--3--|  |--3--|     |--3--|  |--3--|  |--3--|  |--3--|   
  E  E  E  E  E  E  E  E  E  E  E  E     E  E  E  E  E  E  E  E  E  E  E  E   
--------------------------------------|--------------------------------------|
-----3--------3--------3--------3-----|-----2--------2--------2--------2-----|
--------------------------------------|--------------------------------------|
--2-----2--2-----2--2-----2--2-----2--|--2-----2--2-----2--2-----2--2-----2--|
-----------2--------------------------|-----------0--------------------------|
--0-----------------------------------|--0-----------------------------------|


  |--3--|  |--3--|  |--3--|  |--3--|     |--3--|  |--3--|  |--3--|  |--3--|   
  E  E  E  E  E  E  E  E  E  E  E  E     E  E  E  E  E  E  E  E  E  E  E  E   
--------------------------------------|--------------------------------------|
-----0--------0--------0--------0-----|-----0--------0--------0--------0-----|
--------------------------------------|--------------------------------------|
--2-----2--2-----2--2-----2--2-----2--|--2-----2--2-----2--2-----2--2-----2--|
--------------------------------------|--------------------------------------|
--0--------4--------------------------|--L-----------------------------------|


  E  Q    Q    E     E  Q    Q    E     E  Q    Q    E     E  Q    Q    E   
------------------|------------------|------------------|------------------|
------------------|------------------|------------------|------------------|
------------------|------------------|------------------|------------------|
-----9----9----9--|-----9----9----9--|-----9----9----9--|-----9----9----9--|
--7---------------|--7---------------|--7---------------|--7---------------|
------------------|------------------|------------------|------------------|


  E  E   E  Q    E     E   E  E  Q    E     E  E  E  Q    E   
--7--9--10----------|--9-----------------|-------------------|
--------------------|-----10-------------|--8--7-------------|
--------------------|---------7----------|--------9----------|
-----9------9----9--|------9-----9----9--|-----9-----9----9--|
--7-----------------|--7-----------------|--7----------------|
--------------------|--------------------|-------------------|


  E  E  E  Q    E     E  E   E  Q    E     E   E  E  Q    E   
-------------------|--7--9--10----------|--9-----------------|
--7----------------|--------------------|-----10-------------|
--------7----------|--------------------|---------7----------|
-----9-----9----9--|-----9------9----9--|------9-----9----9--|
--7----------------|--7-----------------|--7-----------------|
-------------------|--------------------|--------------------|


  E  E  E  Q    E     E  E  E  Q    E     E  E  E  E  E  E   
-------------------|-------------------|--------0--2--3--5--|
--8--7-------------|--7----------------|--------0-----------|
--------9----------|--------7----------|-----0-----0-----0--|
-----9-----9----9--|-----9-----9----9--|--------------------|
--7----------------|--7----------------|--3-----------------|
-------------------|-------------------|--------------------|


  E  E  E  E  E  E     E  E  E  E  E  E     E  E  E  E  E  E   
--7-----7--5--------|--0-----0--2--3--5--|--7-----7--5--7--9--|
--------------8--7--|--------0-----------|--------------------|
-----0-----0-----0--|-----0-----0-----0--|-----0-----0-----0--|
--------------------|--------------------|--------------------|
--7-----------------|--3-----------------|--7-----------------|
--------------------|--------------------|--------------------|


   E  E   E  E  E  E     E  E  E  E   E  E     E  E  E  E  E  E   
--10-----10--9--7-----|--9-----9--7------0--|--3--5--7-----5--3--|
-------------------7--|--------------10-----|--------------------|
----------------------|-----7---------------|--------------------|
----------------------|--0------------------|-----------2--------|
------9------9-----9--|---------------------|--0-----------------|
---7------------------|---------------------|--------------------|


  E  E  E  E  E  E     E  E   E  Q    E     E   E  E  Q    E   
--------2-----------|--7--9--10----------|--9-----------------|
--5-----------------|--------------------|-----10-------------|
--------------4-----|--------------------|---------7----------|
-----4-----4-----4--|-----9------9----9--|------9-----9----9--|
--2-----------------|--7-----------------|--7-----------------|
--------------------|--------------------|--------------------|


  E  E  E  Q    E     E  E  E  Q    E     E  E   E  Q    E   
-------------------|-------------------|--7--9--10----------|
--8--7-------------|--7----------------|--------------------|
--------9----------|--------7----------|--------------------|
-----9-----9----9--|-----9-----9----9--|-----9------9----9--|
--7----------------|--7----------------|--7-----------------|
-------------------|-------------------|--------------------|


  E   E  E  Q    E     E  E  E  Q    E     E  E  E  Q    E   
--9-----------------|-------------------|-------------------|
-----10-------------|--8--7-------------|--7----------------|
---------7----------|--------9----------|--------7----------|
------9-----9----9--|-----9-----9----9--|-----9-----9----9--|
--7-----------------|--7----------------|--7----------------|
--------------------|-------------------|-------------------|


  E  E  E  E  E  E     E  E  E  E  E  E     E  E  E  E  E  E   
--------0--2--3--5--|--7-----7--5--------|--0-----0--2--3--5--|
--------0-----------|--------------8--7--|--------0-----------|
-----0-----0-----0--|-----0-----0-----0--|-----0-----0-----0--|
--------------------|--------------------|--------------------|
--3-----------------|--7-----------------|--3-----------------|
--------------------|--------------------|--------------------|


  E  E  E  E  E  E      E  E   E  E  E  E     E  E  E  E   E  E   
--7-----7--5--7--9--|--10-----10--9--7-----|--9-----9--7------0--|
--------------------|-------------------7--|--------------10-----|
-----0-----0-----0--|----------------------|-----7---------------|
--------------------|----------------------|--0------------------|
--7-----------------|------9------9-----9--|---------------------|
--------------------|---7------------------|---------------------|


  E  E  E  E  E  E     E  E  E  E  E  E     E  E  E  E  E  E   
--3--5--7-----5--3--|--0-----------------|--2--4--5-----------|
--------------------|-----------------2--|--------------------|
--------------------|-----------1--2-----|-----2--------------|
-----------2--------|-----4--4-----------|--0-----------4-----|
--0-----------------|--2-----------------|-----------0-----0--|
--------------------|--------------------|--------------------|


  E  E  E  E  E  E     E  E  E  E  E  E     E  E  E  E  E  E   
--4--0--------------|--------------------|--------------------|
--------------------|--3--2--0-----------|--2-----------------|
--------2-----------|-----2--------------|-----1--2-----------|
--0-----------4-----|--0-----------4-----|--0-----------4-----|
--------------------|-----------0-----0--|--------------------|
-----------4-----4--|--------------------|-----------4-----4--|


  E  E  E  E  E  E     E  E  E  E  E  E     E  E  E  E  E  E   
--2--4--5-----------|--4--0--------------|--------------------|
--------------------|--------------------|--3--2--0-----------|
-----2--------------|--------2-----------|-----2--------------|
--0-----------4-----|--0-----------4-----|--0-----------4-----|
-----------0-----0--|--------------------|-----------0-----0--|
--------------------|-----------4-----4--|--------------------|


  E  E  E  E  E  E     E  E  E  E  E  E     E  E   E  E  E  E   
--------------------|--7-----------5-----|--------10-----9-----|
--2-----------------|--------0-----------|--7------------------|
-----1--2-----------|--------------------|---------------------|
--0-----------4-----|-----0-----0-----0--|---------------------|
--------------------|--------------------|-----9------9-----9--|
-----------4-----4--|--3-----------------|--7------------------|


  E  E  E  E  E  E     E  E  E  E  E  E     E  E  E  E  E  E   
--7-----------5-----|--2-----2-----2--4--|--5-----5--4--2-----|
--------0-----------|-----------5--------|-----------------2--|
--------------------|--------------------|--------------------|
-----0-----0-----0--|-----4-----4-----4--|--------------------|
--------------------|--2-----------------|-----4-----4-----4--|
--3-----------------|--------------------|--2-----------------|


  E  E  E  E  E  E     E  E  E  E  E  E     E  E  E  E  E  E   
--4-----4--2--0-----|-----0--2-----0-----|--------------------|
-----------------0--|--4--------------4--|--0-----2--------2--|
--------------------|--------------------|--------------2-----|
-----2-----2-----2--|--------------------|--------4--6--------|
--0-----------------|-----2-----2-----2--|-----4--------------|
--------------------|--0-----------------|--2-----------------|


  E  E  E  E  E  E     E  E  E  E  E  E     E  E  E  E  E  E   
--------5-----------|--L-----3-----------|--1-----------------|
--3-----------3-----|--------------3-----|--------3-----3-----|
-----2-----2-----2--|-----4-----4-----4--|-----2-----2-----2--|
--0-----------------|--0-----------------|--0-----------------|
--------------------|--------------------|--------------------|
--------------------|--------------------|--------------------|


  E  E  E  E  E  E     E  E  E  E  E  E     E  E  E  E  E  E   
--3-----------------|--5-----7-----8-----|--7-----3-----------|
--------3-----3-----|--------------------|--------------3-----|
-----4-----4-----4--|--------------------|-----4-----4-----4--|
--0-----------------|-----7-----7-----7--|--0-----------------|
--------------------|--5-----------------|--------------------|
--------------------|--------------------|--------------------|


  E  E  E  E  E  E     E  E  E  E  E  E     E  E  E  E  E  E   
--1-----------------|--3-----------1--0--|--------------1--3--|
--------3-----3-----|--------3-----3-----|--3-----3--5--------|
-----2-----2-----2--|-----2-----2-----2--|--------------------|
--0-----------------|--0-----------------|-----3-----3-----3--|
--------------------|--------------------|--1-----------------|
--------------------|--------------------|--------------------|


  E  E  E  E  E  E     E  E  E  E  E  E     E  E  E  E  E  E   
--5-----5--3--1--0--|--------------1--3--|--5-----5--3--5--7--|
--------------------|--3-----3--5--------|--------------------|
-----2-----2-----2--|--------------------|-----2-----2--------|
--0-----------------|-----3-----3-----3--|--0-----------------|
--------------------|--1-----------------|--------------------|
--------------------|--------------------|--------------------|


  E  E  E  E  E  E     E  E  E  E  E  E     E  E  E  E  E  E   
--8-----8--7--5-----|--7-----7--5--3-----|--2--3--5-----3--2--|
-----------------5--|-----------------3--|--------------------|
-----5-----5-----5--|-----0-----0-----0--|--------------------|
--------------------|--------------------|-----------0-----0--|
--0-----------------|--3-----------------|--------------------|
--------------------|--------------------|--3-----------------|


                       |--3--|  |--3--|  |--3--|  |--3--|  |--3--|   
  E  E  E  E  E  E     E  E  E  E  E  E  E  E  E  E  E  E  E  E  E   
--------0-----------|--5-----5--5-----5--3--------5-----5--3--------|
--3--------0--------|-----5--------5--------7--5-----5--------7--5--|
--------------2-----|-----------------------------------------------|
-----2-----------2--|-----------------------------------------------|
--0-----------------|--3--------------------------------------------|
--------------------|-----------------------------------------------|


  |--3--|  |--3--|  |--3--|  |--3--|  |--3--|     |--3--|                     
  E  E  E  E  E  E  E  E  E  E  E  E  E  E  E     E  E  E  H.           Q     
--5-----5--5-----5--3--------5-----5--5-----5--|--5-----5--4-----------------|
-----5--------5--------7--5-----5--------5-----|-----5-----------------------|
-----------------------------------------------|-----------------------------|
--0--------------------------------------------|--2--------------------------|
-----------------------------------------------|-----------------------------|
-----------------------------------------------|-----------------------------|


  |--3--|  |--3--|  |--3--|  |--3--|  |--3--|   
  E  E  E  E  E  E  E  E  E  E  E  E  E  E  E   
--5-----5--5-----5--3--------5-----5--3--------|
-----5--------5--------7--5-----5--------7--5--|
-----------------------------------------------|
-----------------------------------------------|
--3--------------------------------------------|
-----------------------------------------------|


  |--3--|  |--3--|  |--3--|  |--3--|  |--3--|     |--3--|                      
  E  E  E  E  E  E  E  E  E  E  E  E  E  E  E     E  E  E  H.           Q      
--5-----5--5-----5--3--------5-----5--5-----5--|--5-----5--4-----------------||
-----5--------5--------7--5-----5--------5-----|-----5-----------------------||
-----------------------------------------------|-----------------------------||
--0--------------------------------------------|--2--------------------------||
-----------------------------------------------|-----------------------------||
-----------------------------------------------|-----------------------------||




Duration Legend
---------------
W - whole
H - half
Q - quarter
E - 8th
S - 16th
T - 32nd
X - 64th
. - note dotted
|-n-|  - n-tuplets


Tablature Legend
----------------
L - tied note
x - dead note
g - grace note
(n) - ghost note
> - accentuded note
NH - natural harmonic
AH - artificial harmonic
TH - tapped harmonic
SH - semi harmonic
PH - pitch harmonic
h - hammer on
p - pull off
b - bend
S - shift slide
s - legato slide
/ -  slide into from below or out of upwards
\ -  slide into from above or out of downwards
~ - vibrato
W - wide vibrato
tr - trill
TP - tremolo picking
T - tapping
S - slap
P - pop
< - fade in
^ - brush up
v - brush down

        
Comments

@scarecrowlol (October 16, 2014 at 2:20 AM)

Nice work! I watched this anime as it aired and rather enjoyed it, definitely remember this track from the OST. I also liked the track 'von', didn't realise the vocals were icelandic though.