Gametabs
Home
Tabs
Random

nc17

Average rating: 5.000

6 ratings

Composer:

Tabber:

Style:

Instrument:

Created: October 25, 2014 at 12:00 AM

                                    nc17
                                
Zankyou no Terror
Yoko Kanno
Guitar arrangement by Basisti94 (Miro Laaksonen)
25.10.2014



Capo 1
Tempo ~ 100
2/4
      E  E.  S E     E  E.  S  S S    E  E.  S S S    E  E.  S S S  
E||---------------|-----2----------|---------------|---------------|
B||------3--------|----------------|-----2---------|-----3---------|
G||*---------0----|---------2p-0---|---------0-----|-----------2---|
D||*-----------4--|--0-----------0-|-----------4---|---------4-----|
A||---2-----------|----------------|--0----------2-|-------------4-|
E||---------------|----------------|---------------|--3------------|


  E  E.  S E     E  E.  S  S S    E  E.  S S S    E  E.  S S S    E  E.  S E   
--------------|-----2----------|---------------|---------------|--------------|
-----3--------|----------------|-----2---------|-----3---------|-----3--------|
---------0----|---------2p-0---|---------0-----|-----------2---|---------0----|
-----------4--|--0-----------0-|-----------4---|---------4-----|-----------4--|
--2-----------|----------------|--0----------2-|-------------4-|--2-----------|
--------------|----------------|---------------|--3------------|--------------|


  E  E.  S  S S    E  E.  S S S    E  E.  S S S    E  E.  S E   
-----2----------|---------------|---------------|--------------|
----------------|-----2---------|-----3---------|-----3--------|
---------2p-0---|---------0-----|-----------2---|---------0----|
--0-----------0-|-----------4---|---------4-----|-----------4--|
----------------|--0----------2-|-------------4-|--2-----------|
----------------|---------------|--3------------|--------------|


  E  E.  S  S S    E  E.  S S S    E  E.  S S S    
-----2----------|---------------|----------------||
----------------|-----2---------|-----3----------||
---------2p-0---|---------0-----|-----------2---*||
--0-----------0-|-----------4---|---------4-----*||
----------------|--0----------2-|-------------4--||
----------------|---------------|--3-------------||

Tempo ~ 120
5/4
  |--3--|  |--3--|  |--3--|       |--3--|   
  E  E  E  E  E  E  E  E  E  Q    E  E  E   
-------------------------------------------|
--------3--------2-----------3----------0--|
--------------------------0----------0-----|
-----4--------4--------4----------4--------|
-----------0-------------------------------|
--3-----------------0----------------------|


  |--3--|  |--3--|  |--3--|       |--3--|   
  E  E  E  E  E  E  E  E  E  Q    E  E  E   
-------------------------------------------|
--------3--------2-----------3----------0--|
--------------------------0----------0-----|
-----4--------4--------4----------4--------|
-----------0-------------------------------|
--3-----------------0----------------------|


  |--3--|  |--3--|  |--3--|       |--3--|   
  E  E  E  E  E  E  E  E  E  Q    E  E  E   
-------------------------------------------|
--------3--------2-----------3----------0--|
--------------------------0----------0-----|
-----4--------4--------4----------4--------|
-----------0-------------------------------|
--3-----------------0----------------------|

					   Tempo ~ 100
					   2/4
  |--3--|  |--3--|  |--3--|       |--3--|                                   
  E  E  E  E  E  E  E  E  E  Q    E  E  E     E  E.  S S S    E  E.  S S S  
-------------------------------------------|-----3---------|-----2---------|
--------3--------2-----------3----------0--|---------3-----|---------3-----|
--------------------------0----------0-----|-----------0---|-----------0---|
-----4--------4--------4----------4--------|-------------0-|-------------0-|
-----------0-------------------------------|--2------------|--2------------|
--3-----------------0----------------------|---------------|---------------|


  E  E.  S S S    E  E.  S S S    E  E.  S S S    E  E.  S S S    E  E.  S S S  
-----2---------|-----0---------|-----3---------|-----2---------|-----2---------|
---------3-----|---------2-----|---------3-----|---------3-----|---------3-----|
-----------2---|-----------2---|-----------0---|-----------0---|-----------2---|
-------------0-|-------------2-|-------------0-|-------------0-|-------------0-|
--0------------|--0------------|--2------------|--2------------|--0------------|
---------------|---------------|---------------|---------------|---------------|


  E  E.  S S S    E  E.  S S S    E  E.  S S S    E  E.  S S S    E  E.  S S S  
-----0---------|-----3---------|-----2---------|-----2---------|-----0---------|
---------2-----|---------3-----|---------3-----|---------3-----|---------2-----|
-----------2---|-----------0---|-----------0---|-----------2---|-----------2---|
-------------2-|-------------0-|-------------0-|-------------0-|-------------2-|
--0------------|--2------------|--2------------|--0------------|--0------------|
---------------|---------------|---------------|---------------|---------------|


                                                                     ^          
  E  E.  S S S    E  E.  S S S    E  E.  S S S    E  E.  S S S    E  E.  S S S  
-----3---------|-----2---------|-----2---------|-----0---------|-----3---------|
---------3-----|---------3-----|---------3-----|---------2-----|---------3-----|
-----------0---|-----------0---|-----------2---|-----------2---|-----0-----0---|
-------------0-|-------------0-|-------------0-|-------------2-|-----0-------0-|
--2------------|--2------------|--0------------|--0------------|---------------|
---------------|---------------|---------------|---------------|--3------------|


     ^               ^               ^               ^               ^          
  E  E.  S S S    E  E.  S S S    E  E.  S S S    E  E.  S S S    E  E.  S S S  
-----2---------|-----2---------|-----0---------|-----3---------|-----2---------|
---------3-----|---------3-----|---------2-----|---------3-----|---------3-----|
-----0-----0---|-----2-----2---|-----2-----2---|-----0-----0---|-----0-----0---|
-----0-------0-|-----0-------0-|-----2-------2-|-----0-------0-|-----0-------0-|
---------------|--0------------|--0------------|---------------|---------------|
--3------------|---------------|---------------|--3------------|--3------------|


     ^               ^               ^                ^           
  E  E.  S S S    E  E.  S S S    E  E  S S S S    E  E  S S S S  
-----2---------|-----0---------|-----3----------|-----2----------|
---------3-----|---------2-----|----------3-----|----------3-----|
-----2-----2---|-----2-----2---|-----0------0---|-----0------0---|
-----0-------0-|-----2-------2-|-----0--------0-|-----0--------0-|
--0------------|--0------------|----------------|----------------|
---------------|---------------|--3-----3-------|--3-----3-------|


     ^                ^                ^                ^           
  E  E  S S S S    E  E  S S S S    E  E  S S S S    E  E  S S S S  
-----2----------|-----0----------|-----3----------|-----2----------|
----------3-----|----------2-----|----------3-----|----------3-----|
-----2------2---|-----2------2---|-----0------0---|-----0------0---|
-----0--------0-|-----2--------2-|-----0--------0-|-----0--------0-|
--0-----0-------|--0-----0-------|----------------|----------------|
----------------|----------------|--3-----3-------|--3-----3-------|


     ^                ^                ^                ^           
  E  E  S S S S    E  E  S S S S    E  E  S S S S    E  E  S S S S  
-----2----------|-----0----------|-----3----------|-----2----------|
----------3-----|----------2-----|----------3-----|----------3-----|
-----2------2---|-----2------2---|-----0------0---|-----0------0---|
-----0--------0-|-----2--------2-|-----0--------0-|-----0--------0-|
--0-----0-------|--0-----0-------|----------------|----------------|
----------------|----------------|--3-----3-------|--3-----3-------|


     ^                ^                ^                ^           
  E  E  S S S S    E  E  S S S S    E  E  S S S S    E  E  S S S S  
-----2----------|-----0----------|-----3----------|-----2----------|
----------3-----|----------2-----|----------3-----|----------3-----|
-----2------2---|-----2------2---|-----0------0---|-----0------0---|
-----0--------0-|-----2--------2-|-----0--------0-|-----0--------0-|
--0-----0-------|--0-----0-------|----------------|----------------|
----------------|----------------|--3-----3-------|--3-----3-------|


     ^                ^                ^                ^           
  E  E  S S S S    E  E  S S S S    E  E  S S S S    E  E  S S S S  
-----2----------|-----0----------|-----3----------|-----2----------|
----------3-----|----------2-----|----------3-----|----------3-----|
-----2------2---|-----2------2---|-----0------0---|-----0------0---|
-----0--------0-|-----2--------2-|-----0--------0-|-----0--------0-|
--0-----0-------|--0-----0-------|----------------|----------------|
----------------|----------------|--3-----3-------|--3-----3-------|


     ^                ^                ^                ^           
  E  E  S S S S    E  E  S S S S    E  E  S S S S    E  E  S S S S  
-----2----------|-----0----------|-----3----------|-----2----------|
----------3-----|----------2-----|----------3-----|----------3-----|
-----2------2---|-----2------2---|-----0------0---|-----0------0---|
-----0--------0-|-----2--------2-|-----0--------0-|-----0--------0-|
--0-----0-------|--0-----0-------|----------------|----------------|
----------------|----------------|--3-----3-------|--3-----3-------|


     ^                ^                                           
  E  E  S S S S    E  E  S S S S    E  E.  S E     E  E.  S  S S  
-----2----------|-----0----------|--------------|-----2----------|
----------3-----|----------2-----|-----3--------|----------------|
-----2------2---|-----2------2---|---------0----|---------2p-0---|
-----0--------0-|-----2--------2-|-----------4--|--0-----------0-|
--0-----0-------|--0-----0-------|--2-----------|----------------|
----------------|----------------|--------------|----------------|


  E  E.  S S S    E  E.  S S S    E  E.  S E     E  E.  S  S S    E  E.  S S S  
---------------|---------------|--------------|-----2----------|---------------|
-----2---------|-----3---------|-----3--------|----------------|-----2---------|
---------0-----|-----------2---|---------0----|---------2p-0---|---------0-----|
-----------4---|---------4-----|-----------4--|--0-----------0-|-----------4---|
--0----------2-|-------------4-|--2-----------|----------------|--0----------2-|
---------------|--3------------|--------------|----------------|---------------|


  E  E.  S S S    E  E.  S E     E  E.  S  S S    E  E.  S S S    E  E.  S S S  
---------------|--------------|-----2----------|---------------|---------------|
-----3---------|-----3--------|----------------|-----2---------|-----3---------|
-----------2---|---------0----|---------2p-0---|---------0-----|-----------2---|
---------4-----|-----------4--|--0-----------0-|-----------4---|---------4-----|
-------------4-|--2-----------|----------------|--0----------2-|-------------4-|
--3------------|--------------|----------------|---------------|--3------------|


----|----|----|----||
----|----|----|----||
----|----|----|----||
----|----|----|----||
----|----|----|----||
----|----|----|----||




Duration Legend
---------------
W - whole
H - half
Q - quarter
E - 8th
S - 16th
T - 32nd
X - 64th
. - note dotted
|-n-|  - n-tuplets


Tablature Legend
----------------
L - tied note
x - dead note
g - grace note
(n) - ghost note
> - accentuded note
NH - natural harmonic
AH - artificial harmonic
TH - tapped harmonic
SH - semi harmonic
PH - pitch harmonic
h - hammer on
p - pull off
b - bend
S - shift slide
s - legato slide
/ -  slide into from below or out of upwards
\ -  slide into from above or out of downwards
~ - vibrato
W - wide vibrato
tr - trill
TP - tremolo picking
T - tapping
S - slap
P - pop
< - fade in
^ - brush up
v - brush down

        
Comments

No comments yet