Gametabs
Home
Tabs
Random

Utakata Hanabi

Average rating: 4.667

3 ratings

Composer:

Tabber:

Style:

Instrument:

Created: December 19, 2018 at 12:00 AM

            I did not make this arrangement. The arrangement was done by syahuddin and I have linked to his video. Unfortunately the tab available was only in video form and this is very inconvenient. So I downloaded tux guitar and tried my best to copy it.


E|---------------------------------|---------0-----------0---2---3---|-----3---3---3---4---5---7-------|
B|-----------------0---3---3---0---|-3-----------3-------------------|-----------------------------3---|
G|---------0-----------------------|-----2---------------------------|---------------------------------|
D|-----0-------0-------------------|-0---------------1---------------|---------------------------------|
A|---------------------------------|---------------------------------|---------------------------------|
E|-3-------------------------------|---------------------------------|-0---------------0---------------|


E|-----------------------------------|-2---2---2---3---5---------------|-0-------------------------------|
B|-3---1---0---1--3--1---------------|---------------------3---3---1---|-----0---0-----------------------|
G|---------------------------2-------|---------------------------------|-------------2---0-------0-------|
D|-----------------------2-------2---|-0---------------0---------------|---------------------2-------2---|
A|-0-----------------0---------------|---------------------------------|---------------------------------|
E|-----------------------------------|---------------------------------|-0---------------0---------------|


E|---------------------------------|-----------------------------------|---------------------------------|
B|-----------------0---------------|-0-----------0--1--0---------------|---------------------------------|
G|-2-------2---------------2-------|---------2-----------------2-------|-0---------------0---------------|
D|-----2-------2-------2-------2---|-----1-----------------1-------1---|---------0---------------0-------|
A|-0---------------0---------------|-3-----------------3---------------|-----2-------2-------2-------2---|
E|---------------------------------|-----------------------------------|-3-------------------------------|


E|---------------------------------|-0-----------------------0-------|---------------------------------|
B|-----------------0-------3-------|-----------------1---------------|-4-------------------------------|
G|-0-------------------------------|---------0-----------0-----------|---------5---4-------2-------2---|
D|-0-------------------------------|-----2-------2-------------------|-----4-----------4-------4-------|
A|-2-------------------------------|-3-------------------------------|-2-------------------------------|
E|-3-------------------------------|---------------------------------|---------------------------------|


E|-----------------------------------|---------------------------------|---------------------0-----------|
B|-0---------------0-----------------|-0-------1---0---------------0---|-------------0-------------------|
G|---------0-------------------0--2--|---------------------2-----------|---------0-------0---------------|
D|-----2-------2---------------------|-----0-------------------0-------|-----2---------------------------|
A|-----------------------------------|-----------------2---------------|-3-------------------------------|
E|-0---------------------------------|-3-------------------------------|---------------------------------|


E|-------------3-------------------|-----------------------------------|-0---2--3--0---2---3---------------|
B|-3---------------3-------0-------|-3--1---0--------------------------|-----------------------------------|
G|---------0-----------0-----------|------------2-------0--------------|-----------------------------------|
D|-----0---------------------------|----------------2------------------|-----------------------------------|
A|-2-------------------------------|-0---------------------------------|-3---------3-----------------------|
E|---------------------------------|-----------------------------------|-----------------------------------|


E|-7---------5---5--------|------------------------------|-8-----------7---7-----------7--7--|
B|--------------------8---|-7-------7---8-------10-------|-----------------------------------|
G|------7-----------------|-8----------------------------|---------7---------------7---------|
D|-0----------------------|-9----------------------------|-5---------------5-----------------|
A|------------------------|------------------------------|-----------------------------------|
E|------------------------|-7----------------------------|-----------------------------------|


E|-5-----------8-------7-----------|-3-----------3-------------------|-------------0---7---5---5-------|
B|---------7-------------------7---|---------0-----------3---1---0---|-1---0---1-----------------------|
G|-----7---------------------------|-----0---------------------------|---------------------------------|
D|-0---------------0---------------|---------------------------------|-----------------0---------------|
A|---------------------------------|---------------------------------|-0-------------------------------|
E|---------------------------------|-0-------------------------------|---------------------------------|


E|-8-----------7---7-----------7--7--|-5-----------8-------7-----------|-3-----------3-------0---0---2---|
B|-----------------------------------|---------7-------------------7---|---------0-----------------------|
G|---------7---------------7---------|-----7---------------------------|-----0---------------------------|
D|-5---------------5-----------------|-0---------------0---------------|---------------------------------|
A|-----------------------------------|---------------------------------|---------------------------------|
E|-----------------------------------|---------------------------------|-0-------------------------------|


E|-3----5---3-----------3-------|-------------3-----------3---5---|-7-----------8---5---------------|
B|--------------------------0---|-1---0---1-----------------------|---------7---------------7-------|
G|------------------0-----------|---------------------2-----------|-----7---------------7-------7---|
D|------------------------------|-----------------2---------------|-0-------------------------------|
A|-3------------2---------------|-0-------------------------------|---------------------------------|
E|------------------------------|---------------------------------|---------------------------------|


E|-3---------------3---------------|-3-------------------------------|
B|---------3-------------------3---|-3-------------------------------|
G|-----4-------4-----------4-------|-4-------------------------------|
D|---------------------5-----------|-5-------------------------------|
A|---------------------------------|---------------------------------|
E|-3-------------------------------|-3-------------------------------|




        
Comments

@geddy (January 05, 2019 at 9:41 PM)

Haven't played this game yet, but this tab makes me want to


@Chase99234 (January 14, 2019 at 10:57 PM)

Strangely enough it's not actually from Yume Nikki it's Ending 14 from Naruto Shippuden.