Gametabs
Home
Tabs
Random

Poniko's Room (Lights On)

Average rating: No ratings

Composer:

Tabber:

Style:

Instrument:

Created: December 19, 2018 at 12:00 AM

            Poniko's Room (Lights On)
Yume Nikki
Tabber: diner777g
12/19/2018

2 separate melodies in this trackS:

1:

e|----------------
B|----------------
G|--------4-------
D|----5-------5---
A|3---------------
E|----------------

2:

e|---------------- e|------7-8---7---
B|----6-------6--- B|--6-8-----------
G|5-------5------- G|5---------------
D|---------------- D|----------------
A|---------------- A|----------------
E|---------------- E|----------------
        
Comments

No comments yet