Gametabs
Home
Tabs
Random

The Strongest Foe

Average rating: 5.000

2 ratings

Composer:

Tabber:

Style:

Instrument:

Created: August 19, 2011 at 12:00 AM

            The Strongest Foe (Pre-Arrange Version)
Ys: The Oath in Felghana
Composer: Falcom Sound Team JDK
Tabbed by Bacardibreezer
8/18/11

Bridge pickup

e|-----------------------------------------------------------------------------|
B|-----------------------------------------------------------------------------|
G|----------------------------------------------------------9---7-9-7----------|
D|--7-9-10---7-9-10-----7-9-10---7-9-10-----7-9-10---7-9-10-----------10-9-----|
A|-------------------------------------------------------------------------11--|
E|-----------------------------------------------------------------------------| x2

e|-----------------------------------------------------------------------------|
B|----------------------------------------------------------8---7-8-7----------|
G|-----7-9------7-9--------7-9------7-9--------7-9------7-9-----------9-7-9----|
D|--10-------10---------10-------10---------10-------10------------------------|
A|-----------------------------------------------------------------------------|
E|-----------------------------------------------------------------------------| x2

e|-10~----12-10--------12---15~----14-12-14~--|
B|--------------13~---------------------------|
G|--------------------------------------------|
D|--------------------------------------------|
A|--------------------------------------------|
E|--------------------------------------------|

e|------7-6--------------------------7-6--------9-10-9-10-12~-|
B|----8-----7--------7-------------8-----7--------------------|
G|--9---------9----7-------------9---------9------------------|
D|---------------------9~-------------------------------------|
A|------------------------------------------------------------|
E|------------------------------------------------------------|

e|------7-6--------------------------7-6-10-9--------------10-12-15-12~--|
B|----8-----7-------7--------------8--------------11-12-13---------------|
G|--9---------9---7--------------9---------------------------------------|
D|--------------------9~-------------------------------------------------|
A|-----------------------------------------------------------------------|
E|-----------------------------------------------------------------------|

Switch to neck pickup

e|--19~~~------18~~~------17~~~------16~~~-----12-10-------10-----------|
B|---------------------------------------------------13-12----13-12-10--|
G|----------------------------------------------------------------------|
D|----------------------------------------------------------------------|
A|----------------------------------------------------------------------|
E|----------------------------------------------------------------------|

e|-----12-15-14------------12-15-17-14~---------12-15-14----------------|
B|--13----------15------13-------------------13----------15----13~------|
G|-----------------14---------------------------------------14----------|
D|----------------------------------------------------------------------|
A|----------------------------------------------------------------------|
E|----------------------------------------------------------------------|

e|-----12-15-14------------12-15-17-14~---------12-15-14-17-14-17-------|
B|--13----------15------13-------------------13-------------------17~---|
G|-----------------14---------------------------------------------------|
D|----------------------------------------------------------------------|
A|----------------------------------------------------------------------|
E|----------------------------------------------------------------------|

e|-----12-15-14------------12-15-17-14~---------12-15-14----------------|
B|--13----------15------13-------------------13----------15----13~------|
G|-----------------14---------------------------------------14----------|
D|----------------------------------------------------------------------|
A|----------------------------------------------------------------------|
E|----------------------------------------------------------------------|

e|-----12-15-14------------12-15-17-14~---------12-15-14-17-14----------|
B|--13----------15------13-------------------13----------------15-17~---|
G|-----------------14---------------------------------------------------|
D|----------------------------------------------------------------------|
A|----------------------------------------------------------------------|
E|----------------------------------------------------------------------|

Back to bridge pickup

e|-----------------------------------------------------------------------------|
B|-----------------------------------------------------------------------------|
G|----------------------------------------------------------9---7-9-7----------|
D|--7-9-10---7-9-10-----7-9-10---7-9-10-----7-9-10---7-9-10-----------10-9-----|
A|-------------------------------------------------------------------------11--|
E|-----------------------------------------------------------------------------| x2

e|-----------------------------------------------------------------------------|
B|----------------------------------------------------------8---7-8-7----------|
G|-----7-9------7-9--------7-9------7-9--------7-9------7-9-----------9-7-9----|
D|--10-------10---------10-------10---------10-------10------------------------|
A|-----------------------------------------------------------------------------|
E|-----------------------------------------------------------------------------| x2

e|-10~----12-10--------12---15~----14-12-14~--|
B|--------------13~---------------------------|
G|--------------------------------------------|
D|--------------------------------------------|
A|--------------------------------------------|
E|--------------------------------------------|

e|------7-6--------------------------7-6--------9-10-9-10-12~-|
B|----8-----7--------7-------------8-----7--------------------|
G|--9---------9----7-------------9---------9------------------|
D|---------------------9~-------------------------------------|
A|------------------------------------------------------------|
E|------------------------------------------------------------|

e|------7-6--------------------------7-6-10-9--------------10-12-15-12~--|
B|----8-----7-------7--------------8--------------11-12-13---------------|
G|--9---------9---7--------------9---------------------------------------|
D|--------------------9~-------------------------------------------------|
A|-----------------------------------------------------------------------|
E|-----------------------------------------------------------------------|


        
Comments

@BacardiBreezer (February 02, 2012 at 1:06 PM)

Turn the drive up a bit and palm mute the opening measures if you want to sound like the original.


@Ranulf (April 17, 2012 at 10:00 PM)

Now that I played the game, I can actually appreciate this! :D Awesome