Gametabs
Home
Tabs
Random

To Make the End of Battle

Average rating: No ratings

Composer:

Tabber:

Style:

Instrument:

Created: July 18, 2015 at 12:00 AM

                                    To Make the End of Battle
                                
Ys II
Falcom Sound Team JDK
Bass tab by Basisti94 (Miro Laaksonen)
16.7.2015


Tempo ~ 125

     S S S S S S S S S S S S  S S S S    S S S S S S S S S S S S S S S S  
G||-----------------------------------|----------------------------------|
D||-----------------------------------|----------------------------------|
A||--0-0-0-0-4-0-5-0-7-0-8-0-10-0-8-0-|--7-0-8-0-7-0-5-0-4-0-----0-1-3-1-|
E||-----------------------------------|----------------------6-3---------|


  S S S  E  S S S  S S S S S S S S    S S S  E  S S S  S S S S S S S S  
-----------------------------------|-----------------------------------|
-----------------------------------|-----------------------------------|
--0-0-0-12--L-0---12-0-0---0-0-4-5-|--0-0-0-12--L-0---12-0-0---0-0-4-5-|
-----------------------------------|-----------------------------------|


  S S S  E  S S S  S S S S S S S S    S S S  E  S S S S S  S S S S S S  
-----------------------------------|-----------------------------------|
-----------------------------------|-----------------------------------|
--0-0-0-12--L-0---12-0-0---0-0-4-5-|--0-0-0-12--L-0---0-0-12-0-2-2-4-4-|
-----------------------------------|-----------------------------------|


  S S S S S S S S S S S S S S S S    S S S S S S S S S S S S S S S S  
----------------------------------|----------------------------------|
----------------------------------|----------------------------------|
--5-5-5-5-5-5-5-5-5-5-5-5-5-5-5-5-|--3-3-3-3-3-3-3-3-3-3-3-3-3-3-3-3-|
----------------------------------|----------------------------------|


  S S S S S S S S S S  S  S S  S  S  S     S  S S S S S S S S S S S S S S S  
----------7-----------------9----------|------------7-----------------------|
--------8---8---8--------10---10----10-|----------7---7---0---7-5-----------|
------8-------8-------10---------10----|--------8-------8---0-----7-0-0-0-0-|
--6-6-------------8-8------------------|--10-10-----------------------------|


  S S S S S S S S S S S S S S S S    S S S S S S S S S S S S S S S S  
----------------------------------|----------------------------------|
----------------------------------|----------------------------------|
--5-5-5-5-5-5-5-5-5-5-5-5-5-5-5-5-|--3-3-3-3-3-3-3-3-3-3-3-3-3-3-3-3-|
----------------------------------|----------------------------------|


  S S S S S S S S S S  S  S S  S  S  S     S  S S S S S S S S S S S S S S S  
----------7-----------------9----------|------------7-----------------------|
--------8---8---8--------10---10----10-|----------7---7---0---7-5-----------|
------8-------8-------10---------10----|--------8-------8---0-----7-0-0-0-0-|
--6-6-------------8-8------------------|--10-10-----------------------------|


  S S S S S S S S S S S S S S S S    S S S S S S S S S S S S S S S S  
----------------------------------|----------------------------------|
----------------------------------|----------------------------------|
--5-5-5-5-5-5-5-5-5-5-5-5-5-5-5-5-|--3-3-3-3-3-3-3-3-3-3-3-3-3-3-3-3-|
----------------------------------|----------------------------------|


  S S S S S S S S S S  S  S S  S  S  S     S  S S S S S S S S S S S S S S S  
----------7-----------------9----------|------------7-----------------------|
--------8---8---8--------10---10----10-|----------7---7---0---7-5-----------|
------8-------8-------10---------10----|--------8-------8---0-----7-0-0-0-0-|
--6-6-------------8-8------------------|--10-10-----------------------------|


  S S S S S S S S S S S S S S S S    S S S S S S S S S S S S S S S S  
----------------------------------|----------------------------------|
----------------------------------|----------------------------------|
--5-5-5-5-5-5-5-5-5-5-5-5-5-5-5-5-|--3-3-3-3-3-3-3-3-3-3-3-3-3-3-3-3-|
----------------------------------|----------------------------------|


  S S S S S S S S S S  S  S S  S  S  S  
----------7-----------------9----------|
--------8---8---8--------10---10----10-|
------8-------8-------10---------10----|
--6-6-------------8-8------------------|


   S  S  S  S  S  S  S  S  S  S  S  S  S  S  S  S  
--------------------------------------12----15----|
--------------------------------13----------------|
--------13----10----12----13----------------------|
--11-11----11----11----11----11----11----11----11-|


   S  S  S  S  S  S  S  S S S  S S S S  S S    S S S S S S S S S S S S S S S S  
------------------------------10-------10---|----------------------------------|
--------12----------10-12-------------------|------8-------8-------7---5---7---|
--------------10-12-------8-8----8-8-8----8-|------------------0-0---0---0---0-|
--10-10----10-------------------------------|--6-6---6-6-6---6-----------------|


   S  S  S  S  S  S  S  S S S  S S S S  S S    S S S S S S S S S S S S S S S S  
------------------------------10-------10---|----------------------------------|
--------12----------10-12-------------------|------8---------------7---7-------|
--------------10-12-------8-8----8-8-8----8-|------------------0-0---0---7-4-0-|
--10-10----10-------------------------------|--6-6---6-6-6---8-----------------|


  S E  S E  S S S S S S S S S S    S E  S E  S S S S S S S S S S  
------------5-7-------------0-3-|------------5-7-----------------|
--0----0----------0-3-0-1-1-----|--0----0----------0-3-0-----2---|
--------------------------------|------------------------3-3---3-|
--------------------------------|--------------------------------|


  S E  S E  S S S S S S S S S S    S E  S E  S S S S S S S S S S  
------------5-7-------------0-3-|------------5-7-----------------|
--0----0----------0-3-0-1-1-----|--0----0----------0-3-0-----2---|
--------------------------------|------------------------3-3---3-|
--------------------------------|--------------------------------|


  S S S S S S S S S S S S  S S S S    S S S S S S S S S S S S S S S S  
-----------------------------------|----------------------------------|
-----------------------------------|----------------------------------|
--0-0-0-0-4-0-5-0-7-0-8-0-10-0-8-0-|--7-0-8-0-7-0-5-0-4-0-----0-1-3-1-|
-----------------------------------|----------------------6-3---------|


  S S S  E  S S S  S S S S S S S S    S S S  E  S S S  S S S S S S S S  
-----------------------------------|-----------------------------------|
-----------------------------------|-----------------------------------|
--0-0-0-12--L-0---12-0-0---0-0-4-5-|--0-0-0-12--L-0---12-0-0---0-0-4-5-|
-----------------------------------|-----------------------------------|


  S S S  E  S S S  S S S S S S S S    S S S  E  S S S S S  S S S S S S       
-----------------------------------|-----------------------------------|----|
-----------------------------------|-----------------------------------|----|
--0-0-0-12--L-0---12-0-0---0-0-4-5-|--0-0-0-12--L-0---0-0-12-0-2-2-4-4-|----|
-----------------------------------|-----------------------------------|----|


            H        S S S S S S S S    S S S S S S S S S S S S S S S S  
----|----|---------------------------|----------------------------------|
----|----|-------------7-5-----------|----------------------------------|
----|----|-----------0-----7-0-0-0-0-|--5-5-5-5-5-5-5-5-5-5-5-5-5-5-5-5-|
----|----|---------------------------|----------------------------------|


  S S S S S S S S S S S S S S S S    S S S S S S S S S S  S  S S  S  S  S  
----------------------------------|----------7-----------------9----------|
----------------------------------|--------8---8---8--------10---10----10-|
--3-3-3-3-3-3-3-3-3-3-3-3-3-3-3-3-|------8-------8-------10---------10----|
----------------------------------|--6-6-------------8-8------------------|


   S  S S S S S S S S S S S S S S S    S S S S S S S S S S S S S S S S  
------------7-----------------------|----------------------------------|
----------7---7---0---7-5-----------|----------------------------------|
--------8-------8---0-----7-0-0-0-0-|--5-5-5-5-5-5-5-5-5-5-5-5-5-5-5-5-|
--10-10-----------------------------|----------------------------------|


  S S S S S S S S S S S S S S S S    S S S S S S S S S S  S  S S  S  S  S  
----------------------------------|----------7-----------------9----------|
----------------------------------|--------8---8---8--------10---10----10-|
--3-3-3-3-3-3-3-3-3-3-3-3-3-3-3-3-|------8-------8-------10---------10----|
----------------------------------|--6-6-------------8-8------------------|


   S  S S S S S S S S S S S S S S S    S S S S S S S S S S S S S S S S  
------------7-----------------------|----------------------------------|
----------7---7---0---7-5-----------|----------------------------------|
--------8-------8---0-----7-0-0-0-0-|--5-5-5-5-5-5-5-5-5-5-5-5-5-5-5-5-|
--10-10-----------------------------|----------------------------------|


  S S S S S S S S S S S S S S S S    S S S S S S S S S S  S  S S  S  S  S  
----------------------------------|----------7-----------------9----------|
----------------------------------|--------8---8---8--------10---10----10-|
--3-3-3-3-3-3-3-3-3-3-3-3-3-3-3-3-|------8-------8-------10---------10----|
----------------------------------|--6-6-------------8-8------------------|


   S  S  S  S  S  S  S  S  S  S  S  S  S  S  S  S  
--------------------------------------12----15----|
--------------------------------13----------------|
--------13----10----12----13----------------------|
--11-11----11----11----11----11----11----11----11-|


   S  S  S  S  S  S  S  S H                      
-----------------------------------|-----------||
--------12----------10-12-L--------|-----------||
--------------10-12----------------|-----------||
--10-10----10----------------------|-----------||




Duration Legend
---------------
W - whole
H - half
Q - quarter
E - 8th
S - 16th
T - 32nd
X - 64th
. - note dotted
|-n-|  - n-tuplets


Tablature Legend
----------------
L - tied note
x - dead note
g - grace note
(n) - ghost note
> - accentuded note
NH - natural harmonic
AH - artificial harmonic
TH - tapped harmonic
SH - semi harmonic
PH - pitch harmonic
h - hammer on
p - pull off
b - bend
S - shift slide
s - legato slide
/ -  slide into from below or out of upwards
\ -  slide into from above or out of downwards
~ - vibrato
W - wide vibrato
tr - trill
TP - tremolo picking
T - tapping
S - slap
P - pop
< - fade in
^ - brush up
v - brush down

        
Comments

@Basisti94 (July 18, 2015 at 10:39 PM)

I forgot to mention that it's based on the version from the Chronicles (Steam) release of the game, so the bass line might be different from ones from the older releases. I'm not sure.