Gametabs
Home
Tabs
Random

To Make the End of Battle

Average rating: 5.000

3 ratings

Composer:

Tabber:

Style:

Instrument:

Created: December 05, 2007 at 12:00 AM

                                      To Make the End of Battle                             


                                                                Tabbed by CpxAzn
Track 1



     E  S S S S S S S S S S S S  E     E  S S S S S S S E  Q      S  
E||---------------------------------|-------------------------------|
B||-------6-----8-----5---5---5h-6--|-------6-----8-----5--8br----L-|
G||-------5-----7-----5---5---5--L--|-------5-----7-----5--7b~----L-|
D||--0--0---0-0---0-0---0---0-------|--0--0---0-0---0-0-------------|
A||---------------------------------|-------------------------------|
E||---------------------------------|-------------------------------|


  E  S S S S S S S S S S S S  E     E  S S S S S S S E  Q      S  
---------------------------------|-------------------------------|
-------6-----8-----5---5---5h-6--|-------6-----8-----5--8br----L-|
-------5-----7-----5---5---5--L--|-------5-----7-----5--7b~----L-|
--0--0---0-0---0-0---0---0-------|--0--0---0-0---0-0-------------|
---------------------------------|-------------------------------|
---------------------------------|-------------------------------|


  S S S E  S S S S S S S S S S S  
--------5------------------------|
--5-6-8--------------------------|
-----------------6-------9-------|
-----------7-7-7---7-7-7---7-7-7-|
---------------------------------|
---------------------------------|


  T  T  T  T  T  T  T  T  T  T  T  T  T  T Q     Q     S  
--5h-6p-5h-6p-5h-6p-5h-6p-5h-6p-5h-6p-5h-6---------------|
---------------------------------------------------------|
---------------------------------------------------------|
---------------------------------------------------------|
---------------------------------------------------------|
------------------------------------------------15\------|


  S S S S S S S S T T T T S S S S S S  
--9-5-6---5-------5-6-5---5-------6---|
--------8---6-8-5-------8---5-8-5---5-|
--------------------------------------|
--------------------------------------|
--------------------------------------|
--------------------------------------|


  S S S S S S S S  S  S  S  S  S  S  S S    Q.     S S Q    E  S S  
--------------5-6-12-------13------------|-------------------------|
--------6-8-9--------11-10----11-10------|-----------------------6-|
--6-7-9-----------------------------12-0-|--L----------6----L--9---|
-----------------------------------------|---------7-8-------------|
-----------------------------------------|-------------------------|
-----------------------------------------|-------------------------|


  S S S S S  S S  S  Q     Q         S  S  S  H         S  S  S  S  S  
---------------9-10-12----13b----|--13-12-----------------------------|
--8-6---6-8-10-------------------|--------13-15~--------L----13-15-13-|
------9--------------------------|------------------------14----------|
---------------------------------|------------------------------------|
---------------------------------|------------------------------------|
---------------------------------|------------------------------------|


   S  S  S  H         S  S  S  S  S     E.   E.   E   E.   E.   E   
--13-12-----------------------------|------------------------------|
--------13-15~--------L-------------|------------------------------|
------------------------14-12-------|----------------12--------12--|
------------------------------15-14-|--15---12---15-------14-------|
------------------------------------|------------------------------|
------------------------------------|------------------------------|


   E.   E.   E   E.   E.   E      H            S  S  S  S  S  S  S  S  
------------------------------|------------------------15-17-15-------|
------------------------------|---------------15-17-18----------18-17-|
--14-----------------12---15--|--14br~--------------------------------|
-------15---12--14------------|---------------------------------------|
------------------------------|---------------------------------------|
------------------------------|---------------------------------------|


   E.   E.   E   E.   E.   E      S  S  S  S  S  S  S  S   S S S S  S S S S  
--15---12-----------------12--|--13-10----------------10s-12-8------------8-|
------------13-------13-------|--------11----------11----------8--------8---|
----------------12------------|-----------10----10---------------9----9-----|
------------------------------|--------------12--------------------10-------|
------------------------------|---------------------------------------------|
------------------------------|---------------------------------------------|


   S  S  S  S  S  S  S  S  H             S  S  S  H         S  S  S  S  S  
-----------------------21-22~--------|--13-12-----------------------------|
-----------------18-22---------------|--------13-15~--------L----13-15-13-|
-----------18-19---------------------|------------------------14----------|
-----15-19---------------------------|------------------------------------|
--17---------------------------------|------------------------------------|
-------------------------------------|------------------------------------|


   S  S  S  H         S  S  S  S  S     E.   E.   E   E.   E.   E   
--13-12-----------------------------|------------------------------|
--------13-15~--------L-------------|------------------------------|
------------------------14-12-------|----------------12--------12--|
------------------------------15-14-|--15---12---15-------14-------|
------------------------------------|------------------------------|
------------------------------------|------------------------------|


   E.   E.   E   E.   E.   E      H            S  S  S  S  S  S  S  S  
------------------------------|------------------------15-17-15-------|
------------------------------|---------------15-17-18----------18-17-|
--14-----------------12---15--|--14br~--------------------------------|
-------15---12--14------------|---------------------------------------|
------------------------------|---------------------------------------|
------------------------------|---------------------------------------|


   E.   E.   E   E.   E.   E      S  S  S  S  S  S  S  S   S S S S  S S S S  
--15---12-----------------12--|--13-10----------------10s-12-8------------8-|
------------13-------13-------|--------11----------11----------8--------8---|
----------------12------------|-----------10----10---------------9----9-----|
------------------------------|--------------12--------------------10-------|
------------------------------|---------------------------------------------|
------------------------------|---------------------------------------------|


   Q     Q     Q     Q         Q     S  S  S  E.   E   S  E    S  
--------------------11----|--/17----------15-17---15-----15--/22-|
--------------11----------|---------15-18-------------18---------|
--------12----------------|--------------------------------------|
--13----------------------|--------------------------------------|
--------------------------|--------------------------------------|
--------------------------|--------------------------------------|


  E   E   S  E   E.   E.   E.      Q     S  S  S  E.   E   S  E   S  
--L--17--15---------------15---|--17-------13-15-17---15--13-15--22-|
------------18--17---18--------|--------15--------------------------|
-------------------------------|------------------------------------|
-------------------------------|------------------------------------|
-------------------------------|------------------------------------|
-------------------------------|------------------------------------|


  E   E   Q       Q     Q     
--L--22--22br----22----21----|
-----------------------------|
-----------------------------|
-----------------------------|
-----------------------------|
-----------------------------|


   I put two different ways you can play it here.                               
   S                                              S  S  S  S  S  S  S  S  S  S  
-----------------------------------------------------5--------5--------5--------
--------------------------------------------------6--------6--------6--------6--
---7---------------------------------------------10-14--7-10-14--7-10-14--7-10-1
--12---------------------------------------------------12-------12-------12-----
--------------------------------------------------------------------------------
--------------------------------------------------------------------------------


   S  S  S  S  S  S  S  S  S  S  S  S  S  S  S S  
---------5--------5--------5--------5--------3---|
------6--------6--------6--------6-----3--6----5-|
---7-10-14--7-10-14--7-10-14--7-10-14----10-12-9-|
--12-------12-------12-------12-------12---------|
-------------------------------------------------|
-------------------------------------------------|


   S  S  S  S  S  S  S  S  S  S  S  S  S  S  S  S  
---------5--------5--------5--------5--------6----|
------6--------6--------6--------6--------6-11--8-|
---7-10-14--7-10-14--7-10-14--7-10-14--7-10----12-|
--12-------12-------12-------12-------12----------|
--------------------------------------------------|
--------------------------------------------------|


   S  S  S  S  S  S  S  S  S  S  S  S  E  E     E  S S S S S S S S S S S S  E   
---------5--------5--------5--------5--------|---------------------------------|
------6--------6--------6--------6-----8--5--|-------6-----8-----5---5---5h-6--|
---7-10-14--7-10-14--7-10-14--7-10-14-12--9--|-------5-----7-----5---5---5--L--|
--12-------12-------12-------12--------------|--0--0---0-0---0-0---0---0-------|
---------------------------------------------|---------------------------------|
---------------------------------------------|---------------------------------|


  E  S S S S S S S E  Q      S    S S S S S S S S S S S S S S S S  
-------------------------------|----------------------------------|
-------6-----8-----5--8br----L-|----6-----6-----6-----6-----6-----|
-------5-----7-----5--7b~----L-|----5-----5-----5-----5-----5-----|
--0--0---0-0---0-0-------------|--0---0-0---0-0---0-0---0-0---0-0-|
-------------------------------|----------------------------------|
-------------------------------|----------------------------------|


  S E  Q     H        S   
------------------------||
--5-6-------------------||
-------7\---------------||
------------------------||
------------------------||
------------------------||




Duration Legend
---------------
W - whole
H - half
Q - quarter
E - 8th
S - 16th
T - 32nd
X - 64th
. - note dotted
|-n-|  - n-tuplets

        
Comments

@Devil_cry999 (January 12, 2008 at 1:39 PM)

The tab is awsome but I personally think that the passage sohould be played like this:

E.   E.   E   E.   E.   E
--15---12-----------------12--|
------------13-------13-------|
----------------12------------|
------------------------------|
------------------------------|
------------------------------|

S  S  S  S  S  S  S  S   S  S  S  S  S  S  S  S
--13-10----------------10s-12----------------------|
--------11----------11--------13----------------13-|
-----------10----10--------------12----------12----|
--------------12--------------------14----14-------|
---------------------------------------15----------|
---------------------------------------------------|

S  S  S  S  S  S  S  S  H
-----------------------21-22~--------|
-----------------18-22---------------|
-----------18-19---------------------|
-----15-19---------------------------|
--17---------------------------------|
-------------------------------------|

So it´s much more easy to play...


@Noanzer (January 20, 2008 at 1:30 AM)

Sweet tab. And why would you play it the easy way when you can play it the hard way?