Gametabs
Home
Tabs
Random

Lost... Broken Shards

Average rating: 5.000

5 ratings

Composer:

Tabber:

Style:

Instrument:

Created: November 18, 2007 at 12:00 AM

            Lost... Broken Shards
Xenogears
Composed by Yasunori Mitsuda
Arranged by 
11/18/07



     H        Q    Q         Q    Q    Q    Q       Q    Q    Q    Q     
E||-----------0---------||---1-------------------|--1--------------3----|
B||---------------------||------------------1----|----------------------|
G||---------------------||*----------------------|------------3---------|
D||---------------------||*------------3---------|-------3--------------|
A||---------------------||--------0--------------|--1-------------------|
D||---------------------||---0-------------------|----------------------|


  Q    Q    Q    Q       Q    Q    Q    Q       Q    Q    Q    Q     
--5--------------6----|--3--------------5----|--1-------------------|
----------------------|----------------------|-----------------1----|
----------------------|----------------------|----------------------|
------------5---------|------------3---------|------------3----2----|
-------3--------------|-------0--------------|-------0--------------|
--3-------------------|--2-------------------|--0-------------------|


  Q    Q    Q    Q       Q    Q    Q    Q       Q    Q    Q    Q       
--1--------------3----|--3-------------------|--3--------------------||
-----------------1----|-----------------6----|--5--------------------||
------------3---------|------------5---------|-------5--------------*||
-------3--------------|-------5--------------|------------5----2----*||
--1-------------------|--3-------------------|-----------------------||
----------------------|----------------------|-----------------------||


  Q    Q    Q    Q       Q    Q    Q    Q       Q     Q     Q     Q     
--1--------------3----|--5--------------6----|--8----------------13----|
----------------------|----------------------|-------------------------|
----------------------|------------5---------|-------------12----10----|
------------3---------|-----------------8----|-------10----------------|
-------0--------------|-------8--------------|--8----------------------|
--0-------------------|--8-------------------|-------------------------|


   Q     Q    Q    Q       H         H           H.           E  E   
--12----13----8----6----|--5--------10--------|--1------------3--5--|
------------------------|--6------------------|--3------------------|
---9----10----9---------|--7------------------|--3------------------|
-------------------8----|--7------------------|--3------------------|
------------------------|--5------------------|--1------------------|
------------------------|---------------------|---------------------|


  Q    Q    Q    Q       Q    Q    H           Q    Q    Q    Q     
--3-------------------|---------------------|--3----1----0----1----|
-----------------6----|--5------------------|----------------------|
------------5---------|-------5-------------|----------------------|
-------5--------------|------------5--------|--0-------------------|
--3-------------------|---------------------|----------------------|
----------------------|---------------------|----------------------|


  Q    Q    Q    Q       Q    Q    Q    Q       W                  
-------0--------------|----------------------|--------------------|
--1---------3---------|--1-------------------|--------------------|
-----------------0----|-------2---------0----|--------------------|
--2-------------------|------------3---------|--2~----------------|
-----------------3----|--0-------------------|--------------------|
----------------------|----------------------|--0-----------------|


  W                  
-------------------||
-------------------||
-------------------||
--L----------------||
-------------------||
--L----------------||




Duration Legend
---------------
W - whole
H - half
Q - quarter
E - 8th
S - 16th
T - 32nd
X - 64th
. - note dotted
|-n-|  - n-tuplets

        
Comments

@ajrock2000 (November 19, 2007 at 1:03 AM)

ah yes, i remember this one!


@Ennea (January 06, 2012 at 4:09 PM)

love the random button