Gametabs
Home
Tabs
Random

Lost... Broken Shards

Average rating: 4.000

1 ratings

Composer:

Tabber:

Style:

Instrument:

Created: October 02, 2007 at 12:00 AM

            Xenogears
Lost... Broken Shards
Composed by Yasunori Mitsuda

8/7/06

e-------------------------------------------------------
B-------------------------------------------------------
G--------------------0-2-----3-0-----2---------------0-0
D--2---3-------3-------3-------2-------3-------3-------2
A------3-----3-5-----------------------5-----3-5--------
E-------------------------------------------------------

e-------------------------------------------------
B-------------------------------------------------
G----------------0-2---3-0---2--------------------
D--2---3-----3-----------------3-----3---2-0------
A----------3-----------------------3-----------3-3
E-------------------------------------------------

e--------------------1-0-1------------------------------
B----------------1---------1-------3--------------------
G--------0-2---3-------------3-2-----------0-2-0--------
D----3---------------------------------3----------------
A--3----------------------------------------------------
E-------------------------------------------------------

e--3-1-0-1---0-------------------
B----------1---3----1------------
G----------------0-----2-----0---
D-------------------------3-----2 <-- Bend that last note
A--------------------------------     back and forth to get
E--------------------------------     the correct effect.

        
Comments

@Thoma Culler (July 15, 2007 at 7:36 PM)

This is awesome can you tab out far away promise?!?!


@maikenzen (April 05, 2009 at 11:48 PM)

wow this is great


@snckpack (May 10, 2009 at 7:56 AM)

sweet i love it archard your my hero...no homo