Gametabs
Home
Tabs
Random

Reminiscence

Average rating: 5.000

4 ratings

Composer:

Tabber:

Style:

Instrument:

Created: January 20, 2021 at 12:00 AM

            Track 1: Track 1

E|---------------------2---0-------|---------------------------|--------------2----0----|
B|-----------------------------3---|-0-------0-----0---2---3---|-2------------2---------|
G|---------------------------------|---------0-----------------|---------2--------------|
D|---------------------------------|-----0---------------------|-----2------------------|
A|---------------------------------|---------------------------|-0----------------------|
E|---------------------------------|-3-------------------------|------------------------|


E|-2------------0---2---0-------|----------------------2----|-7---------------3---7---5---3---|
B|-3------------------------2---|-3-------2----3-------3----|---------3-----------------------|
G|---------2----0-------2-------|---------4-----------------|-----4-------4-------------------|
D|-----4------------------------|-----4------------2--------|---------------------------------|
A|-5------------4---------------|-2------------0------------|---------------------------------|
E|------------------------------|---------------------------|-3-------------------------------|


E|-5-------0----2----3----|-2------------0---2---0-------|---------------------------|
B|---------2--------------|--------------------------2---|-3-------2-----------------|
G|--------------2---------|---------2----0-------0-------|---------4----4-------2----|
D|-----2------------------|-----4------------------------|-----4------------2--------|
A|-0----------------------|-5------------4---------------|-2------------0------------|
E|------------------------|------------------------------|---------------------------|


E|---------------------------|-0-----------|------------------------------|-0-----------|
B|-0----2---3---2--------2---|-0-----4-----|-0-------2---3---2--------2---|-0-----4-----|
G|--------------2----2-------|-------4-----|-----------------2----2-------|-------4-----|
D|-0------------2------------|-------4-----|-----0-----------2------------|-------4-----|
A|--------------0------------|-2-----2-----|-----------------0------------|-2-----2-----|
E|-3-------------------------|-------------|-3----------------------------|-------------|


E|-2-------0----2----5----|-0---------------------|-------------------------5----|
B|---------3--------------|---------2-----3---2---|-3-------2---3---5------------|
G|-----0------------------|-----2-----------------|---------0---------------2----|
D|------------------------|-----------------------|-----2---------------2--------|
A|------------------------|-----------------------|-----------------0------------|
E|-3----------------------|-2---------------------|-0----------------------------|


E|-2-------------------2---0---2---|-7------------0---5---5---3---|-2-------0-----------------|
B|-3-----------3---1---------------|-3-------7----2---------------|-3------------3-------2----|
G|---------2-----------------------|-----4------------------------|--------------2------------|
D|-----4-----------0---------------|------------------------------|-----4------------2--------|
A|-5-------------------------------|--------------0---------------|-2------------0------------|
E|---------------------------------|-3----------------------------|---------------------------|


E|-----------------------------0---|-----------------2-----|-2-------0-------2-------5----|
B|-0---------------0---2---3-------|-2---------------2-----|------------------------------|
G|---------0-------0---------------|---------3-------------|-----0-------0-------0--------|
D|-----0-------0-------------------|-----4-------4---------|------------------------------|
A|---------------------------------|-----------------------|------------------------------|
E|-3-------------------------------|-2---------------------|-3----------------------------|


E|-0---------------0------------|-----------------0-------5----|-2-------------------2---0---2---|
B|---------2-------2----3---2---|-3-------2---3-------2---5----|-3-----------3---1---------------|
G|-----2-------2----------------|---------0--------------------|---------2-------2---------------|
D|------------------------------|-----2------------------------|-----4-----------0---------------|
A|------------------------------|-----------------0------------|-5-------------------------------|
E|-2----------------------------|-0----------------------------|---------------------------------|


E|-7------------0---5---5---3---|-2-------0-----------------|------------------------|
B|-3-------7----2---------------|-3------------3-------2----|-0----2---3---2---------|
G|-----4------------------------|-----4------------2--------|-------------------2----|
D|------------------------------|---------------------------|-0------------2---------|
A|--------------0---------------|-2------------0------------|--------------0---------|
E|-3----------------------------|---------------------------|-3----------------------|


E|-----0---2---0-------------------|--------------------------0---|-----------------2---------|
B|-0---------------4-------2---3---|-0------------0---2---3-------|-2--------------------2----|
G|-----------------4---4-----------|------------------------------|---------2-----------------|
D|-4---------------4---------------|---------2--------------------|-----4-------4-------------|
A|-2---------------2---------------|-----2------------------------|---------------------------|
E|---------------------------------|-0----------------------------|-2-------------------------|


E|-----------------0-------5----|-------------7-------------------|-------------10---------14---12--|
B|-3-------2---3---2-------2----|-7-------7-----------7---8---10--|-12------14------14--------------|
G|-0-------------------2--------|-7-------------------7-----------|---------------------14----------|
D|-----0------------------------|-----9---------------------------|-----12--------------------------|
A|-----------------0------------|-----------------0---------------|-10--------------12--------------|
E|-3----------------------------|-7-------------------------------|---------------------------------|


E|-10--9-----------------------9---|-10--------------10--9---10--12--|-9-----------|
B|---------12--10--12------12------|-------------8---12--------------|-------------|
G|---------11----------11----------|---------9-----------------------|-11----------|
D|-----11----------9---------------|-----9---------------------------|-11----------|
A|-9-------------------------------|-7-------------------------------|-9-----------|
E|---------------------------------|---------------------------------|-------------|




        
Comments

No comments yet