Gametabs
Home
Tabs
Random

On the Fallen Arm

Average rating: 5.000

8 ratings

Composer:

Tabber:

Style:

Instrument:

Created: December 17, 2013 at 12:00 AM

            Game: Xenoblade Chronicles
Song: On the Fallen Arm
Composed by: Manami Kiyota
                      
Transcribed by Jack the Cow
18/12/2013


           ^                                             
     E  E  H        S S S S    S S S S S S S S H         
E||--------3--------3-------|---------------------------|
B||--------3----------3-4-3-|----3----------------------|
G||-----3--3----------------|--5---5-3-2-3-2-0----------|
D||--5-----5----------------|------------------0--------|
A||-------------------------|---------------------------|
E||--3----------------------|---------------------------|


        ^                        ^                                          
  E  E  H        E  S S    E  E  H        E  E     E  E  E  E  E  E  E  E   
--------3--------L------|--------3--------------|--------------------------|
--------3--------L--3-4-|--3-----3--------------|--------------------1--3--|
-----3--3--------L------|-----3--3--------0--2--|--3-----0--2--3--0--------|
--5-----5--------L------|--------5--------------|-----0--------0-----------|
------------------------|-----------------------|--------------------------|
--3---------------------|--3--------------------|--3-----------------3-----|


  E  E  E  E  E  E  E  E     E  E  E  E  E  E  E  E   
--------------------------|--------3-----------------|
--------------------------|--------4-----6--4--3--4--|
--2--------0--2-----0--2--|-----3-----3--------------|
--------3--------3--------|--5-----------5-----------|
-----3--------3-----------|--6-----------------6-----|
--1-----------------1-----|--------------------------|


  E  E  E  E  E  E  E  E     E  E  E  E  E  E  E  E   
--------------------------|--------------------------|
--3--------1--3--3--4--3--|--1-----------3-----1-----|
--------3-----------------|--------2--------2-----2--|
-----3--------3-----------|-----2-----2--0-----------|
--1-----------------1-----|--0-----------------------|
--------------------------|--------------------------|


  E  E  E  E  E  E  E  E     E  E  E  E  Q    Q       E  E  E  E  Q    E  E   
--------------3-----3--5--|--6-----5-----3---------|-------------------------|
-----------3--------------|-------------------4----|--3-----1----------------|
--0--2--3--------3--------|-----3-----3------------|-----2--------2----0--2--|
--------------------5-----|--------5----------5----|--0--------0-------------|
--------------6-----------|--3-----------3---------|--------0----------------|
--3-----1-----------------|------------------------|-------------------------|


  E  E  E  E  E  E  E  E     E  E  E  E  E  E  E  E   
--------------------------|--------------------------|
--------------------1--3--|--------------------------|
--3-----0--2--3--0--------|--2--------0--2-----0--2--|
-----0--------0-----------|--------3--------3--------|
--------------------------|-----3--------3-----------|
--3-----------------3-----|--1-----------------1-----|


  E  E  E  E  E  E  E  E     E  E  E  E  E  E  E  E   
--------3-----------------|--------------------------|
--------4-----6--4--3--4--|--3--------1--3--3--4--3--|
-----3-----3--------------|--------3-----------------|
--5-----------5-----------|-----3--------3-----------|
--6-----------------6-----|--1-----------------1-----|
--------------------------|--------------------------|


  E  E  E  E  E  E  E  E     E  E  E  E  E  E  Q       E  E  E  E  E  E  E  E   
--------------------------|--------------3----------|--------------------------|
--1-----------3-----1-----|-----------3--------4----|--3-----3--4--3-----------|
--------2--------2-----2--|--0--2--3--------3-------|-----5--------------2--3--|
-----2-----2--0-----------|--------------------5----|--------5-----0-----------|
--0-----------------------|--------------6----------|--3--------------0--------|
--------------------------|--3-----1----------------|--------------------------|


  E  E  E  E  E  E  E  E     E  E  E  E  E  E  E  E   
--------------------3-----|--------------------------|
-----------------------6--|--4--------3--4--3-----4--|
--0-----0--2--3-----------|--------5-----------5-----|
-----0-----------0--------|-----5--------------5-----|
--------------------------|--3-----------3-----------|
--3-----------------------|--------------------------|


  E  E  E  E  E  E  E  E     E  E  E  E  E  E  E  E   
--------------------------|--------------------------|
--3-----1-----------------|-----3--3--------3--3-----|
--------------2-----0--2--|--3-----3-----2--------2--|
--0-----0-----0-----0--4--|--------------------3-----|
-----0-----0-----0--------|-----------5--3-----------|
--------------------------|--3-----------------------|


  E  E  E  E  E  E  E  E     E  E  E  E  E  E  E  E   
--3-----------------------|--------3-----------------|
--------6-----4--------4--|--4--------6--4--3--1--4--|
-----3-----3--------5-----|-----5--------------------|
--------5--------5--------|--------5-----0-----------|
--6-----------3-----------|--0-----------------0-----|
--------------------------|--------------------------|


  E  E  E  E  E  E  E  E     E  E  E  E  E  E  E  E     E  E  E  E  Q    E  E   
--------------3-----------|--------3-----------------|-------------------------|
-----------3--------4-----|--4--6-----4--6--4--3--4--|--3-----1----------------|
--------3--------3-----3--|--------------------------|-----2--------2----0--2--|
--5-----5-----------5-----|--------5-----------5-----|--0--------0-------------|
-----5--------6-----------|--3-----------3-----------|--------0----------------|
--3-----------------------|--------------------------|-------------------------|


  E  E  E  E  E  E  E  E     E  E  E  E  E  E  E  E   
--------------------------|--------------------------|
--------------------1--3--|--------------------------|
--3-----0--2--3--0--------|--2--------0--2-----0--2--|
-----0--------0-----------|--------3--------3--------|
--------------------------|-----3--------3-----------|
--3-----------------3-----|--1-----------------1-----|


  E  E  E  E  E  E  E  E     E  E  E  E  E  E  E  E   
--------3-----------------|--------------------------|
--------4-----6--4--3--4--|--3--------1--3--3--4--3--|
-----3-----3--------------|--------3-----------------|
--5-----------5-----------|-----3--------3-----------|
--6-----------------6-----|--1-----------------1-----|
--------------------------|--------------------------|


  E  E  E  E  E  E  E  E     E  E  E  E  E  E  E  E     E  E  E  E  Q    Q     
--------------------------|--------------3-----3--5--|--6-----5-----3---------|
--1-----------3-----1-----|-----------3--------------|-------------------4----|
--------2--------2-----2--|--0--2--3--------3--------|-----3-----3------------|
-----2-----2--0-----------|--------------------5-----|--------5----------5----|
--0-----------------------|--------------6-----------|--3-----------3---------|
--------------------------|--3-----1-----------------|------------------------|


  E  E  E  E  Q    E  E     Q    E  E  E  E  E   E   
-------------------3--5--|--6----------6-----8--10--|
--3-----1----------------|----------8-----8---------|
-----2--------2----------|-------7------------------|
--0--------0-------------|--5-----------------------|
--------0----------------|--------------------------|
-------------------------|--------------------------|


   Q.      E   Q    E   E      H         E   E   E   E   
---------------------------|------------13--11--10--11--|
--10----------------8--10--|------------11--------------|
--------------10-----------|--12------------------------|
----------10---------------|----------------------------|
---8-----------------------|----------------------------|
---------------------------|--11------------------------|


   Q.      E   Q     E   E     Q     Q     Q    E   E   
--10----------------11--10--|--8----------10----8------|
--------------11------------|-------10-------------10--|
----------10----------------|--------------7-----------|
---8------------------------|--7-----------------------|
----------------------------|--------------------------|
----------------------------|--------------------------|


   E   E   E   E   Q     Q        E   E   E   E   Q     E   E   
--------------10--15----11----|--10------10--11--10------------|
---8--10--11------------------|------13----------------10--11--|
------------------------------|----------12--------------------|
------------------------------|--10----------------------------|
--10-------8------------------|------------------------12------|
------------------11----------|------------------10------------|


   H.            E   E      E   E   E   E   E   E   E   E   
----------------15--13--|--11----------10--11--10------11--|
------------------------|----------13--------------13------|
--12--------------------|------12--------------------------|
------------------------|--10------------------------------|
--10--------------------|----------------------------------|
------------------------|----------------------------------|


   E  E  E  E   Q    E   E      E   E   Q     E   E   Q     
--10-----8------------------|------10--10--------10--10----|
---------------10----8--10--|--11------------10------10----|
------7-----7---------------|------------------------------|
---0------------0-----------|----------12----10------------|
---------0------------------|--10--------------------------|
----------------------------|------------------------------|


   E   E   Q     Q     E   E     E   E   E   E  Q     E   E   
--15------13----11------------|---------11--10--8--------10--|
--------------------------13--|----------------------10------|
----------------------12------|------------------------------|
------13--------10------------|--7--10----------0------------|
------------------------------|-----------------------0------|
--11--------------------------|------------------------------|


   E   E   E   E   E   E   E   E      E   E   E   E   E   E   E   E   
--------------10--15--------------|------------------10------10--11--|
----------11----------------------|------10--11----------13----------|
--12------------------------------|--12----------12------------------|
------12----------------------13--|--10--------------10--------------|
--10----------------------13------|----------------------------------|
------------------11--11----------|----------------------------------|


                                   ^              
   E   E  Q     Q    Q       E  E  H.             
--10------8---------------|--------3------------||
------10-------10---------|--------3------------||
--------------------------|--------3------------||
---0------------0---------|-----5--5------------||
----------0----------0----|--------5------------||
--------------------------|--3-----3------------||




Duration Legend
---------------
W - whole
H - half
Q - quarter
E - 8th
S - 16th
T - 32nd
X - 64th
. - note dotted
|-n-|  - n-tuplets


Tablature Legend
----------------
L - tied note
x - dead note
g - grace note
(n) - ghost note
> - accentuded note
NH - natural harmonic
AH - artificial harmonic
TH - tapped harmonic
SH - semi harmonic
PH - pitch harmonic
h - hammer on
p - pull off
b - bend
br - bendRelease
pb - preBend
pbr - preBendRelease
brb - bendReleaseBend
\n/ - tremolo bar dip
\n - tremolo bar dive
-/n - tremolo bar Release up
/n\ - tremolo bar inverted dip
/n - tremolo bar return
-\n - tremolo bar Release down
S - shift slide
s - legato slide
/ -  slide into from below or out of upwards
\ -  slide into from above or out of downwards
~ - vibrato
W - wide vibrato
tr - trill
TP - tremolo picking
T - tapping
S - slap
P - pop
< - fade in
^ - brush up
v - brush down

        
Comments

@Silverae (February 26, 2014 at 4:15 AM)

Made an account just to say how good this tab is!