Gametabs
Home
Tabs
Random

Torigoth (Night)

Average rating: 5.000

1 ratings

Composer:

Tabber:

Style:

Instrument:

Created: January 01, 2018 at 12:00 AM

            Torigoth - Night
Xenoblade Chronicles 2

Contributor:  Azurda19

Standard Tuning (eBGDAE)

Intro
e|---------15---17---14-----------|
B|----15--------------------------|
G|--------------------------------|
D|--------------------------------|
A|--------------------------------|
E|--------------------------------|

Part 1 x 2
e|--------1s2--2s3-2-----2--------|--------1s2--2s3-2---3-5-2------|
B|3---3-5------------5-3---5-3-2--|3---3-5------------5-------3-2--|
G|--2-----------------------------|--2-----------------------------|
D|--------------------------------|--------------------------------|
A|--------------------------------|--------------------------------|
E|--------------------------------|--------------------------------|

e|--------1s2--2s3-2-----2--------|2-------------------------------|
B|3---3-5------------5-3---5-3-2--|--5-3-2--5-3-2-3----------------|
G|--2-----------------------------|--------------------------------|
D|--------------------------------|--------------------------------|
A|--------------------------------|--------------------------------|
E|--------------------------------|--------------------------------|

Bridge
e|4s5--3-2------1s2---------------|5--3-2-------2---3---3-5s7-5----|
B|---------3-5-------3---2h3------|---------3-5--------------------|
G|--------------------------------|--------------------------------|
D|--------------------------------|--------------------------------|
A|--------------------------------|--------------------------------|
E|--------------------------------|--------------------------------|

e|------17---15---14--------------|
B|---------------------15---17----|
G|--------------------------------|
D|--------------------------------|
A|--------------------------------|
E|--------------------------------|

Part 2 x 2
e|---------2-3-2--------------|--10-9-10-12-14-10--12-14-12|
B|3--5---5--------3----------3|----------------------------|
G|-------------------4---2----|----------------------------|
D|----------------------------|----------------------------|
A|----------------------------|----------------------------|
E|----------------------------|----------------------------|


e|----10--9--7--5--7-5-2------|-------2------2-------------|
B|----------------------3-----|3h4h5----3-5----3-5---------|
G|7---------------------------|----------------------------|
D|----------------------------|----------------------------|
A|----------------------------|----------------------------|
E|----------------------------|----------------------------|

e|7-7--7-5-5------------------|
B|----------------------------|
G|----------------------------|
D|----------------------------|
A|----------------------------|
E|----------------------------|

End
e|3-3--3-2-2--------12-14-17--|
B|----------------------------|
G|----------------------------|
D|----------------------------|
A|----------------------------|
E|----------------------------|

Repeat From Part 1

        
Comments

No comments yet