Gametabs
Home
Tabs
Random

One Last You

Average rating: 5.000

2 ratings

Composer:

Tabber:

Style:

Instrument:

Created: November 17, 2020 at 12:00 AM

            An external link to my google drive. For use until the issue regarding tab downloads has been resolved
A pdf version available for download
https://drive.google.com/drive/folders/1MPccG05m3V9cF3CgBFRTRRASnlflkiUc...
One Last You
~ Xenoblade Chronicles 2
by Yasunori Mitsuda
tabbed and arranged by sosss12
for 2 guitars

bpm=128
Guitar 1
     E  E     H        E  E  E  E     H        Q    Q     
E||----^0--|--L--------L-----------|----------------0----|
B||----^3--|--L--------L--------3--|-----------3---------|
G||----^2--|--L--------L-----0-----|--2------------------|
D||----^4--|--L--------L--4--------|---------------------|
A||--------|-----------------------|---------------------|
D||--------|-----------------------|---------------------|


  Q    E  Q    Q    E     H        E  E  E  E     E  E  E  E  H         
--2----3--2------------|-----------------------|-----0--2--7--L--------|
---------------3-------|-----------2-----0--2--|--3--------------------|
--------------------2--|--L-----------3--------|-----------------------|
-----------------------|-----------------------|--4--------------------|
-----------------------|-----------------------|-----------------------|
-----------------------|-----------------------|-----------------------|


  E  E  E  E  H           H        E  Q.        W                 
-----7-----------------|---------------------|-------------------|
--------7--------------|--3--------L--3------|--2----------------|
-----------7--L--------|---------------------|--2----------------|
-----------------------|---------------------|--2----------------|
-----------------------|---------------------|--0----------------|
-----------------------|---------------------|-------------------|


  H          Q    Q       H          Q.     E      Q    E  E  H         
------------------0----|--2--------0g2------2--|--/2----0--0--L--------|
-----------2g3---------|-----------------------|-----------------------|
-----------------------|-----------------------|-----------------------|
-----------------------|-----------------------|-----------------------|
-----------------------|-----------------------|-----------------------|
-----------------------|-----------------------|-----------------------|


  W                   Q.     S S Q    Q       Q.     Q    S S  Q     
--L----------------|------------------0----|--2------2----L-3S-5----|
-------------------|-----------2-3---------|------------------------|
-------------------|-----------------------|------------------------|
-------------------|-----------------------|------------------------|
-------------------|-----------------------|------------------------|
-------------------|-----------------------|------------------------|


  Q    E  H         E     Q    E  Q    E  E  E     H        Q    Q      
--0--------------------|----------0-------------|----------------0S----|
-------3--3~--------0--|--3----3----------------|-----------3----------|
-----------------------|------------------------|----------------------|
-----------------------|------------------0--2--|--0-------------------|
-----------------------|---------------0--------|----------------------|
-----------------------|------------------------|----------------------|


  H        E  Q     E     Q    E  S  E.  Q.        W                 
--2--------2--L~----2--|--2----0----------------|-------------------|
-----------------------|----------3S-5---L------|--L----------------|
-----------------------|------------------------|-------------------|
-----------------------|------------------------|-------------------|
-----------------------|------------------------|-------------------|
-----------------------|------------------------|-------------------|


  Q     Q     Q    Q       Q    E  Q.     E  E     Q    E  Q    E  Q     
-------(2)----5----2----|--2----0--0------2-----|---------------0--2----|
------------------------|--------------------3--|--L----3--3------------|
------------------------|-----------------------|-----------------------|
------------------------|-----------------------|-----------------------|
------------------------|-----------------------|-----------------------|
------------------------|-----------------------|-----------------------|


  H.            Q        Q     Q     Q.     E     Q.     Q.      E   E   
--0------------(0)----|--L----(0)----L---------|--5------5------(2)--0--|
----------------------|---------------------3--|------------------------|
----------------------|------------------------|------------------------|
----------------------|------------------------|------------------------|
----------------------|------------------------|------------------------|
----------------------|------------------------|--4------------------4--|


                  >                       >          >                
  H.           E  E     H        Q    E   E     Q    E  Q    Q    E   
--L------------L-----|----------------2S--3--|--L----2---------------|
---------------------|-----------3-----------|----------3------------|
---------------------|-----------------------|---------------2----L--|
---------------------|-----------------------|-----------------------|
---------------------|-----------------------|-----------------------|
--5---------------5--|--4-----------------4--|--5-----------------5--|


  Q    E  Q    Q    E     H.           Q       W                 
--5----5--5----2----0--|--L-----------------|--0----------------|
--3--------------------|---------------3----|--3----------------|
-----------------------|---------------0----|--2----------------|
-----------------------|---------------2----|--2----------------|
--0--------------------|--------------------|--0----------------|
-----------------------|--2-----------------|-------------------|

                     Segno
  H.           Q        Q.         Q.     Q        H.            Q     
---------------9----|--10------11g10------9----|----------------------|
--------------------|--------------------------|--10~------------8----|
--------------------|--------------------------|----------------------|
--------------------|--------------------------|----------------------|
--------------------|--------------------------|----------------------|
--------------------|--------------------------|----------------------|


     Q.      Q    Q     E     H.           Q        Q     Q     Q    E   E   
---------------------------|---------------9----|--10----10----10----9------|
--9g10------10----8s----7--|--------------------|-----------------------10--|
---------------------------|--9-----------------|---------------------------|
---------------------------|--------------------|---------------------------|
---------------------------|--------------------|---------------------------|
---------------------------|--------------------|---------------------------|


                          >                                       
   H.           Q         W                    H.           Q     
----------------------|--------------------|----------------9----|
---L------------8s----|--10----------------|---L-----------------|
----------------------|--------------------|---------------------|
----------------------|--------------------|---------------------|
----------------------|--------------------|---------------------|
----------------------|--------------------|---------------------|


   Q     E   Q.     Q        H.            Q        Q.      Q    Q    E   
--10----10--10------9----|----------------------|------------------------|
-------------------------|--10~------------8----|--10------10----8----7--|
-------------------------|----------------------|------------------------|
-------------------------|----------------------|------------------------|
-------------------------|----------------------|------------------------|
-------------------------|----------------------|------------------------|


  H.           E  E     E  E  E  Q.     Q       Q    E  Q.     Q     
---------------------|-----------------------|----------------------|
---------------------|--7--7--7--7------7----|--8----7--------------|
--9------------L--9--|-----------------------|----------9------7----|
---------------------|-----------------------|----------------------|
---------------------|-----------------------|----------------------|
---------------------|-----------------------|----------------------|

               Coda
  W                   H.           E  E     H        E  E  E  E   
-------------------|-----------------^0--|--L--------L-----------|
-------------------|-----------------^3--|--L--------L--------3--|
--9----------------|--L--------------^2--|--L--------L-----0-----|
-------------------|-----------------^4--|--L--------L--4--------|
-------------------|---------------------|-----------------------|
-------------------|---------------------|-----------------------|


  H        Q    Q       Q    E  Q    Q    E     E  E  Q    E  E  E  E   
----------------0----|--2----3--2------------|-------------------------|
-----------3---------|--3------------3-------|-------------2-----------|
--2------------------|--2-----------------2--|--L----------3--0--------|
--0------------------|--0--------------------|--------0----------4--2--|
--0------------------|-----------------------|-----2-------1-----------|
---------------------|-----------------------|-------------------------|


  H        E  E  E  E     W                   H         H          
-----------------0--2--|-------------------|----------------------|
--3--------2--3--------|--0----------------|--0--------(3)--------|
--2--------------------|--1----------------|--2-------------------|
--0--------------------|--2----------------|--2-------------------|
--2--------------------|--2----------------|--0-------------------|
-----------------------|-------------------|----------------------|


  W                   H          Q    Q       H.           Q     
-------------------|------------------0----|--2------------2----|
--2----------------|-----------2g3---------|--------------------|
--2----------------|-----------------------|--------------------|
--2----------------|-----------------------|--------------------|
--0----------------|-----------------------|--------------------|
-------------------|-----------------------|--------------------|


  Q    E  E  H           W                   Q.     S S Q    Q     
--2----0--0--L--------|--L----------------|------------------0----|
----------------------|-------------------|-----------2-3---------|
----------------------|-------------------|-----------------------|
----------------------|-------------------|-----------------------|
----------------------|-------------------|-----------------------|
----------------------|-------------------|-----------------------|


  Q.     Q    S S  Q       Q    E  H         E     Q    E  Q    E  E  E   
--2------2----L-3S-5----|--0--------------------|----------0-------------|
------------------------|-------3--3~--------0--|--3----3----------------|
------------------------|-----------------------|------------------------|
------------------------|-----------------------|------------------0--2--|
------------------------|-----------------------|---------------0--------|
------------------------|-----------------------|------------------------|


  H        Q    Q       H        Q.     E     Q    E  S  S H         
----------------0----|--2--------2------2--|--2----0----------------|
-----------3---------|---------------------|----------3S-5-L--------|
---------------------|---------------------|------------------------|
--0------------------|---------------------|------------------------|
---------------------|---------------------|------------------------|
---------------------|---------------------|------------------------|


  E  E  E  E  E  E  E  E     Q     Q     Q    Q       Q    E  Q.     Q     
--------------------------|-------(2)----5----2----|--2----0--0------2----|
--L-----------------------|------------------------|----------------------|
--0--0--------------------|------------------------|----------------------|
--------0-----2--4--2--4--|--L---------------------|----------------------|
-----------2--2-----2-----|------------------------|----------------------|
--------------2-----2-----|------------------------|----------------------|


  Q    E  Q    Q    E     H        H           H        Q.     E   
---------------0----2--|--0--------5--------|--7--------9------3--|
--3----3--3------------|--0--------2--------|--5------------------|
-----------------------|--2--------2--------|--4--------9---------|
-----------------------|--2--------2--------|-----------7---------|
-----------------------|--0--------0--------|--0--------0---------|
-----------------------|--------------------|---------------------|


  Q.     Q.     Q       W                   H        E  Q    E   
--5------5------2----|--0----------------|--------------2----3--|
---------------------|-------------------|-----------3----------|
---------------------|-------------------|----------------------|
---------------------|-------------------|----------------------|
---------------------|-------------------|----------------------|
---------------------|-------------------|----------------------|


                                                     |--3--|            
  Q    E  Q    Q.        Q.     Q    Q    E     Q    E  E  E  H         
--L----2--------------|--5------5----2----2--|--L----3--2--0--L--------|
----------3----3------|----------------------|-------------------------|
---------------2------|----------------------|-------------------------|
----------------------|----------------------|-------------------------|
----------------------|----------------------|-------------------------|
----------------------|----------------------|-------------------------|


  H        H           H        S   S  Q.        H         
-----------0--------|--2--------9S-10S-9------|--L--------|
--3-----------------|-------------------------|-----------|
--------------------|-------------------------|-----------|
--------------------|-------------------------|-----------|
--------------------|-------------------------|-----------|
--------------------|-------------------------|-----------|

                       Dal Segno al Coda
  Q    Q    Q    Q     
-------5----7----9----|
----------------------|
----------------------|
----------------------|
----------------------|
----------------------|

Coda
          H        H           H        H         
-------|-----------7--------|--5-----------------|
-------|--7-----------------|-----------3--------|
-------|--------------------|--------------------|
-------|--5-----------------|--4-----------------|
-------|--5-----------------|--0-----------------|
-------|--5-----------------|--4-----------------|

  Q    E  Q.     E  E     E  Q.     Q    E  E     H        H         
--3----2--0------------|--0--2-----------------|-----------7--------|
--2-----------------3--|--3--------------0-----|--------------------|
--3--------------------|--2-----------------6--|--7-----------------|
-----------------------|--0--------------------|--5-----------------|
-----------------------|--2---------0----------|--5-----------------|
--4--------------4-----|-----------------------|--5-----------------|


   H         E   E   E   E     Q    E  Q.     Q       W                 
--10---------L--------------|--7----7--7------7----|--9----------------|
---7---------L--10--10--10--|--0-------------------|--7----------------|
---7---------L--------------|--0-------------------|--6----------------|
---7---------L--------------|----------------------|--8----------------|
---9---------L--------------|--7-------------------|-------------------|
----------------------------|----------------------|-------------------|


   Q.      Q    Q     E      H.           E  E     Q.     Q    Q    E   
--10------10----9--------|-------------------0--|--2------3----2----0--|
---0-----------------10--|---L------------------|--2-------------------|
---0---------------------|---7------------------|--3-------------------|
---0---------------------|---7------------------|----------------------|
--10---------------------|---9------------------|--1-------------------|
-------------------------|----------------------|----------------------|


                                              >                     
  Q.     H        E     H        E  Q.        E  Q    E  E  Q.      
--0------------------|-----------0--2------|-------------0--2------|
---------3-----------|--3------------------|--3-------3------------|
--2------------------|--0------------------|--2-------2------------|
--0------------------|--0------------------|--4-------4------------|
--2------------------|---------------------|-----------------------|
---------------------|--5------------------|--4-------4------------|


  H        Q    E  E     E  Q    Q    E  E  E     H        Q.     E   
--7--------7----7--9--|--L---------------------|-----------2---------|
--0--------0----0-----|------------------------|--3--------3---------|
--0--------0----0--6--|--L--6----6----6--6--6--|--2--------2---------|
-------------------8--|--L--8----8----8--8--8--|--5--------5------5--|
--7--------7-------9--|--L--9----9----9--9--9--|---------------------|
----------------------|------------------------|---------------------|


  Q    Q    H           H        Q.     E     Q.     Q    Q    E   
---------------------|---------------------|-------------------5--|
--3------------------|--0------------------|--0------3----3-------|
--2---------2--------|--0--------2---------|--2------2------------|
--4----4----4--------|--2--------2------2--|--0-----------0-------|
------------0--------|-----------2---------|----------------------|
---------------------|---------------------|----------------------|


  >                     >         >           >   >                 
  H        Q.     E     Q.     E  H           E   Q.     Q    Q     
--7------------------|--5------------------|--2S--3------L----5----|
--0--------0---------|--3------3--3--------|--0---L------L----0----|
--0--------0---------|--2---------2--------|--0---L------L----0----|
--5--------0------0--|--4---------4--------|--2---L------L----2----|
---------------------|------------0--------|-----------------------|
---------------------|---------------------|-----------------------|


  H        Q    Q       H        H           H        H         
--2--------2----0----|-----------7--------|--5-----------------|
--0------------------|--3--------3--------|--3--------3--------|
--2------------------|--4-----------------|--2--------2--------|
--4------------------|--5-----------------|--4-----------------|
---------------------|--------------------|--------------------|
---------------------|--------------------|--------------------|


  H        H           H        H           H        Q    Q     
-----------3--------|--2-----------------|--7------------------|
--0--------0--------|--0--------0--------|--0--------3----5----|
--0--------0--------|-----------2--------|--0--------0---------|
--2-----------------|--0-----------------|--5------------------|
--------------------|--2-----------------|---------------------|
--------------------|--------------------|---------------------|


  H        H           H        H           H        H         
--2--------5--------|--------------------|--------------------|
--3--------3--------|--3--------2--------|--3--------3--------|
--2--------2--------|--0--------3--------|--0--------2--------|
--------------------|--0--------4--------|--0--------0--------|
--------------------|--------------------|-----------0--------|
--4-----------------|--2--------4--------|--5-----------------|


  W                   Q    E  Q.     Q       H.           Q     
-------------------|--7----7--7------5----|--------------------|
--2----------------|--0-------------------|--3------------2----|
--2----------------|--0-------------------|--2-----------------|
--2----------------|----------------------|--0-----------------|
--0----------------|----------------------|--------------------|
-------------------|--5-------------------|--4-----------------|


  Q.     Q.     Q       W                   Q    E  Q    Q    E   
--3------3------2----|-------------------|--7----7--7----5-------|
--0------------------|--0----------------|--0-----------------3--|
--0------------------|-------------------|--0--------------------|
--2------------------|--0----------------|-----------------------|
---------------------|--2----------------|-----------------------|
--2------------------|-------------------|--5--------------------|


  H.           E  E     Q.     Q.     E  E     W                 
---------------0--2--|--2------3------0-----|-------------------|
--L------------------|--0----------------3--|--2----------------|
--2------------------|--0-------------------|--4----------------|
---------------------|--2-------------------|--4----------------|
--0------------------|----------------------|-------------------|
--4------------------|--2-------------------|--4----------------|


  Q    E  Q.     Q       H        E  E  E  E     Q.     Q.     Q     
--7----7--7------5----|-----------------------|--3------3------2----|
--0-------------------|--3--------L--3--2--3--|--0------------------|
--0-------------------|--2--------L-----------|--0------------------|
----------------------|--0--------L-----------|---------------------|
----------------------|-----------------------|---------------------|
--5-------------------|--4--------L-----------|--2------------------|


  Q    E  Q    Q.        H        Q.     E      H.           E  E   
----------------------|--7--------7------9--|----------------0--2--|
-------0--2----3------|--0------------------|--10------------------|
--2-------------------|--0------------------|--11------------------|
--0-------------------|--0------------------|--11------------------|
--2-------------------|---------------------|---9------------------|
----------------------|--5------------------|----------------------|


  Q.     Q.     Q       W                    Q.      E   E  Q     E   
--3------5------7----|--9----------------|--10------10------9--------|
--0------L------0----|--7----------------|---0-----------0-------10--|
--0------L------0----|--6----------------|---0-----------0-----------|
--2------L-----------|--8----------------|---0-----------0-----------|
----------------7----|-------------------|--10----------10-----------|
---------------------|-------------------|---------------------------|


   H        Q    E  E     S  S Q    E  Q    Q       Q.     E  Q    Q     
--------------------0--|--------------------5----|--2------0------------|
---L-------------------|--7S-8-L----8------------|--3--------------3----|
---7--------7----7-----|--0--L-L----L--0----L----|--2---------2---------|
---7--------7----------|-------------------------|--0---------0---------|
---9--------9----------|--7--L-L----L--7----L----|--2---------2---------|
-----------------------|-------------------------|----------------------|


  H        Q    Q       H        E  E  E  E     Q.     H        E   
--7--------7----9----|--5--------------0--3--|--3------3-----------|
--0--------0---------|--------------3--------|--0------------------|
--0--------0---------|--6--------------------|--0------------------|
--0--------0---------|--4--------0-----------|--2------------------|
---------------------|-----------------------|---------------------|
--5------------------|--4--------0-----------|--2------------------|


  Q.     H        E     Q    E  Q.     Q        H.           Q     
--5------5-----------|--7----7--7------7----|---9------------9----|
--3------------------|--0-------------------|---------------------|
--2------------------|--0-------------------|--11-----------------|
--4------------------|--5-------------------|--11-----------------|
---------------------|----------------------|---9-----------------|
--0------------------|--5-------------------|---------------------|


   Q.     Q.     Q       W                                                 
--10------9------5----|--7----------------|-------|-------|-------|-------|
----------------------|-------------------|-------|-------|-------|-------|
----------------------|-------------------|-------|-------|-------|-------|
----------------------|-------------------|-------|-------|-------|-------|
----------------------|-------------------|-------|-------|-------|-------|
----------------------|-------------------|-------|-------|-------|-------|


-------|-------||
-------|-------||
-------|-------||
-------|-------||
-------|-------||
-------|-------||




Guitar 2
             >    NH   NH    NH       >     >                          
             E    E    E     H        E     Q    E  E   Q     S  E.    
E||-------|---------------<>12-----------|-------0--------------------|
B||-------|------------------------------|----------3--(3)------------|
G||-------|----------<>7-----------------|----------------------------|
D||-------|-----<>7----------------------|----------------------------|
A||-------|------------------------------|----------------------------|
D||-------|--0------------------------2--|--4----L--L---L-----L-(5)---|


  >                       >  >        >     >        >                        
  H        E  E  E  E     E  E  E  E  E  E  E  E     E  E  E  E  E  E  E  E   
-----------------------|-----3--2-----------------|-----------7--------------|
--------------------3--|--L--------3--2--L--0--L--|--------7-----------------|
-----------------2-----|--------------------------|-----9--------------------|
--0-----------0--------|--------------------------|-----------------0--2--4--|
--2--------------------|--0-----------1-----------|--------------------------|
--5--------------------|--0-----------------4-----|--9--------------4--------|


  >        >        >     >                  >                       
  H        Q    E.  S     E  E  E  Q    Q    E     W                 
-----------------------|-----------5------------|-------------------|
-----------0-----------|--------5---------------|-------------------|
-----------------------|-----7------------------|-------------------|
-----------2-----------|------------------------|-------------------|
--2--------------------|----------------5-------|--0----------------|
--2-------------2---5S-|--7------------------2--|-------------------|


  Q    Q    H           H        H           H        H         
---------------------|--------------------|--------------------|
---------------------|-----------3--------|--3--------3--------|
---------------------|-----------2--------|--4--------4--------|
------------4--------|--4--------4--------|--5--------5--------|
-------0----5--------|--5--------5--------|--------------------|
--0------------------|--------------------|--------------------|


  Q.     Q    Q    E     Q    Q    Q    Q       Q    Q    Q    Q     
----------------------|----------------------|----------------------|
--3------2----3-------|--3---------3---------|--1---------1---------|
--4------2----0----2--|------------2---------|------------2---------|
--5-------------------|-------4---------4----|-------4---------4----|
----------------------|--2-------------------|--0-------------------|
----------------------|----------------------|----------------------|


  Q    Q    Q    Q       Q.     E  E  E  Q       E  E  E  E  Q    Q     
----------------------|-----------------------|-----------2------------|
--0---------0---------|-----------------------|--------3---------------|
------------2----0----|--2--------------------|-----2--------2---------|
-------0--------------|--2--------------------|--0-----------0---------|
----------------------|--0------0-----0-------|-------------------0----|
--5-------------------|------------0-----0----|--0---------------------|


  Q    Q    E.  E.  E     E  E  E  E  H           Q.     Q    Q    E   
-----------------------|-----------------------|----------------------|
----------------3------|--------0--3-----------|--3------2----3-------|
--2---------2---2---2--|-----0--------4--------|--4------2----0----2--|
--4---------4----------|--0-----------5--------|--5-------------------|
-------0---------------|-----------------------|----------------------|
-----------------------|--5--------------------|----------------------|


  >                  >     >                  >     >                  >   
  E  E  E  Q    Q    E     E  E  E  Q    Q    E     E  E  E  Q    Q    E   
--------0--5------------|-----------0------------|------------------------|
-----3----------0----0--|--2-------------2----2--|-----------3----0----0--|
--0-------------0----0--|--2-----2-------2----2--|--0-----0-------0----0--|
--0------------------0--|--2--2---------------2--|--0--0---------------0--|
--2------------------2--|--0------------------0--|------------------------|
------------------------|------------------------|--5------------------5--|


  H        H           H        Q    Q       E  E  E  Q    Q    E   
--------------------|-----------0---------|-----------0------------|
--0--------2--------|--3--------2---------|--------3---------------|
--0--------2--------|--0--------2---------|-----2----------2-------|
--2--------2--------|--2------------------|--4------------------4--|
--0--------0--------|-----------0---------|------------------------|
--2-----------------|--2-------------2----|------------------------|


  E  E  E  Q    Q    E     E  E  E  Q    Q    E     E  E  E  Q    Q    E   
-----------0------------|-----------0------------|------------------------|
--------3-------3-------|--------3---------------|--------3------------3--|
-----2----------2----2--|-----2----------2-------|-----2-----2------------|
--5------------------5--|--4------------------4--|--5-------------5----5--|
------------------------|------------------------|------------------------|
------------------------|------------------------|-----------0------------|


  Q    E  Q    Q    E     E  E  E  Q    Q    E     E  E  E  Q    E  Q     
----------0------------|-----------0------------|------------------------|
-------3-------3-------|--------0-------0-------|-----------3------------|
--------------------2--|---------------------0--|--------2---------------|
-----------------------|------------------------|-----2------------------|
--0-----------------0--|-----2------------------|--0---------------------|
-----------------------|--2---------------------|----------------0--2----|


                                         Segno                                         
                                           Bm                    
  Q                    Q    E  E  E  E     Q    E  E  Q.     E   
-----------------------0----0--0--0-----|--2----------2------2--|
--2--------------------2----2--2--2-----|--3-------3--3------3--|
--2--------------------2----2--2--2-----|--4----4-----4------4--|
--2--------------------2----2--2--2-----|--0----------0------0--|
--0--------------------0----0--0--0-----|--2----------2------2--|
----------------------------------------|-----------------------|


  G                       Dsus2                        A                      
  E  E  Q    Q.     E     E     E  E  Q    E  E  E     E  E  E  E  Q    Q     
-----------------------|--------------5-------------|-------------------0----|
--0--0--0----0------0--|--5--------5--5-------------|-------------------2----|
--0--0--0----0------0--|--7-----7-----7-------0--2--|--L--2--0----------2----|
--5--5--5----5------5--|--7-----------7----4-----0--|-----2--2--4--2----2----|
--5----------5------5--|--5-----------5----------0--|-----0--0----------0----|
--5----------5------5--|----------------------------|------------------------|


  Bm                      G                        Asus4                     
  Q    E  E  Q.     E     E  E  E  E  Q.     E     E     E  E  Q    Q    E   
--2----------2------2--|--------------3------3--|--0------------------------|
--3-------3--3------3--|-----------0--0------0--|--3-----------3----3----3--|
--4----4-----4------4--|--------0-----0------0--|--2--------2-------2----2--|
--0----------0------0--|-----0--------0------0--|--2-----2---------------2--|
--2----------2------2--|------------------------|--0------------------------|
-----------------------|--5---------------------|---------------------------|


  A                        Bm                     G                     
  Q    Q    E  E  E  E     Q.     E  Q.     E     E  E  Q    Q.     E   
-------0----0--0--0-----|--2------2--2------2--|-----------------------|
--2----2----2--2--2-----|--3------3--3------3--|--0--0--0----0------0--|
--2----2----2--2--2-----|--4------4--4------4--|--0--0--0----0------0--|
--2----2----2--2--2-----|--0---------0------0--|--5--5--5----5------5--|
--0----0----0--0--0-----|--2---------2------2--|--5----------5------5--|
------------------------|----------------------|--5----------5------5--|


  Dsus2                       Asus4          A           
  E     E  E  Q    Q    E     E     E  E  E  E  Q    E   
--------------5----5----0--|--0-----0-------------------|
--5--------5--5----5----3--|--3--------3--2--0-------2--|
--7-----7-----7----7----2--|--2-----------------2----2--|
--7-----------7----7----2--|--2-----------------2----2--|
--5-----------5----5----0--|--0-----------------0----0--|
---------------------------|----------------------------|

                                                                            Coda
  Bm                       G                        Asus4                       
  E  E  E  Q    Q    E     E  E  E  Q    Q    E     E     E   E  Q    E  E  E   
--2--------2------------|-----------3------------|---------------7----2--0-----|
--3-----3---------------|--0-----0---------------|-----------10-------------3--|
--4--4----------4----4--|--0--0----------0----0--|--7-----9--------------------|
--0------------------0--|--5------------------5--|--7--------------------------|
--2------------------2--|--5------------------5--|--0--------------------------|
------------------------|--5------------------5--|-----------------------------|


  A                                                                  
                                                               >     
  H.           E  E     H.           E  E     H         E   E  Q     
--0------------------|---------------------|------------------------|
--2------------------|---------------------|------------------------|
--2------------------|------------------2--|--2~--------------------|
--2---------------0--|--0------------L-----|------------5s--4--0----|
--0------------------|---------------------|------------------------|
---------------------|---------------------|------------------------|


  Q    Q    Q    Q       Q    E  E  E  E  E  E     H        E   Q    E    
-------5----5----5----|--5----3--2--6--3--2--0--|------------------------|
----------------------|-------------------------|--3---------------------|
--0-------------------|-------------------------|------------------------|
----------------------|-------------------------|------------------------|
----------------------|-------------------------|-----------4S--5--------|
----------------------|-------------------------|--------------------7S--|


  Q.     Q.     Q       Q.     E  E  E  Q       Q.     E  Q    Q     
---------7-----------|-----------------------|---------0--0----0----|
----------------7----|---------8--7----------|--2------2--2----2----|
---------------------|--9------------9--7----|--2------2--2----2----|
---------------------|-----------------------|--2------2--2----2----|
---------------------|-----------------------|--0------0--0----0----|
--6------------------|--7--------------------|----------------------|


  D                                              G/D                   
  Q    E  E  Q.     E     Q    Q    Q    Q       Q    E  E  Q.     E   
-----------------------|----------------------|-----------------------|
--3----3-----3------3--|--3----3----3---------|--3----3-----3------3--|
--2-------2--2------2--|--2----2----2---------|--4-------4--4------4--|
--0----------0------0--|--0----0----0----4----|--5----------5------5--|
--0--------------------|----------------------|--5--------------------|
--0--------------------|----------------------|-----------------------|


                         Bm7                       Am6                     
  Q.     Q    Q    E     E   E  E  Q    Q    E     E   E  E  Q    Q    E   
----------------------|-------------------------|-------------------------|
--3------2----3-------|--3---------3----3----3--|--1---------1----1----1--|
--4------2----0----2--|--2------2-------2----2--|--2------2-------2----2--|
--5-------------------|--4---4----------4----4--|--4---4----------4----4--|
----------------------|--2--------------2----2--|--0--------------0----0--|
----------------------|-------------------------|-------------------------|


  G                        Asus4                                           
  E  E  E  Q    Q    E     Q.     E  E  E  Q       E  E  E  E  Q    E  E   
------------------------|-----------------------|-----------2-------------|
--0--------0----0-------|--3--------------------|--------3----------------|
--0-------------2----0--|--2--------------------|-----2-------------2-----|
--5-----5---------------|--2--------------------|--0-----------0----0--2--|
--5--5------------------|--0------0-----0-------|-------------------------|
--5---------------------|------------0-----0----|--0----------------------|


                                     >              
  E  E  E  E  Q    E  E     E  E  E  E  Q    E  E   
-----------2-------------|-----------5-------------|
--------3----------------|--------0-------------3--|
-----2-------------2-----|-----0-------------------|
--0-----------0----0-----|-------------------------|
----------------------0--|-------------------------|
--0----------------------|--5-----------5----5-----|


  E  T  S. E  E  E  E  E  E     Q.     Q    Q    E     Q.     Q    Q    E   
--3--3S-5--L--L--3--2--0--2--|--L------L----L----L--|----------------------|
-----------------------------|--3------3----3----3--|--1------1----1----1--|
-----------------------------|--2------2----2----2--|--2------2----2----2--|
-----------------------------|--4------4----4----4--|--4------4----4----4--|
-----------------------------|--2------2----2----2--|--0------0----0----0--|
-----------------------------|----------------------|----------------------|


  Q.     Q    Q    E     E  E  E  E  E  E  E  E     E  E  Q    Q.     E   
----------------------|-----------------------0--|--------0----5---------|
--0------0----0----0--|-----0--2--3-----2--3-----|--3--3-------2---------|
--0------0----0----0--|--2-----------2-----------|--2----------2---------|
--5------5----5----5--|--2-----------2-----------|--2----------2---------|
--5------5----5----5--|--0-----------0-----------|--0----------0------0--|
--5------5----5----5--|--------------------------|-----------------------|


  H.           E  E     H        E  E  E  E     Q    H        E  E   
--0------------L-----|--0-----------------0--|----------------------|
--3------------L-----|--3--------3--2--3-----|--3-------------------|
--2------------L-----|--2--------------------|--2----2--------L-----|
--4------------L--4--|--5--------------------|--4----------------4--|
---------------------|-----------------------|----------------------|
---------------------|-----------------------|----------------------|


  H        Q    Q       Q.     Q    Q    E     Q.     Q    Q    E   
--0------------------|----------------------|----------------------|
--3--------3----3----|--3------3----3----3--|--0------0----0----0--|
--2--------2----2----|--2-------------------|--0-------------------|
--5--------5----5----|--4-------------------|--2-------------------|
---------------------|--2-------------------|--2-------------------|
---------------------|----------------------|--2-------------------|


  E  E  E  E  E  E  E  E     E  E  E  E  E  E  Q       H         
--0--0--0--0--2--2--2--2--|--3--3--3--3--5--5--5----|--L--------|
--0--0--0--0--2--2--2--2--|--0--0--0--0--5--5--5----|--L--------|
--0--0--0--0--2--2--2--2--|--0--0--0--0--4--4--4----|--L--------|
--2--2--2--2--4--4--4--4--|--5--5--5--5--0--0--0----|--L--------|
--------------------------|--------------0--0--0----|--L--------|
--------------------------|-------------------------|-----------|


  E  E  E  E  Q    E  E   
--0-----0--0--0----0-----|
--2-----2--2--2----2-----|
--2-----2--2--2----2-----|
--2-----2--2--2----2-----|
--0-----0--0--0----0-----|
-------------------------|

                                            Dal Segno al Coda
  W                   E  E  E  H        E   
--0----------------|-----------2--------2--|
--2----------------|--------0--------------|
--2----------------|-----0-----------------|
--2----------------|--0--------------------|
--0----------------|-----------------------|
-------------------|-----------------------|


Coda
  E  E  E  H        E     E  E  E  H        E     E  E  E  H        E   
-----------------------|-----------0-----------|-----------------------|
--------2--3-----------|--------2-----------3--|-----------3-----------|
-----2--------------2--|-----3-----------------|--------2-----------2--|
--4--------------------|--4--------------------|-----0-----------------|
-----------------------|-----------------------|--2--------------------|
-----------------------|-----------------------|-----------------------|


  E  E  E  Q    Q    E     E  E  E  Q    Q    E     E  E  E  Q    Q    E   
-----------3------------|-----------5------------|-----------3----2----0--|
--------0-------0-------|--------3-------3-------|--------0---------------|
-----0---------------0--|-----2---------------2--|-----0------------------|
--0---------------------|--4---------------------|--2---------------------|
------------------------|------------------------|------------------------|
------------------------|------------------------|------------------------|


  E  E  E  E  E  E  E  E     E  E  E  Q    E  E  E     E  E  E  Q    E  E  E   
-----------6--2--0--------|-----------3-------------|-----------0-------------|
--------------------2-----|--------0----------------|--------2-------3--2-----|
--------3--------------3--|-----0----------2--0-----|-----2----------------2--|
-----4--------------------|--0-------------------0--|--4----------------------|
--------------------------|-------------------------|-------------------------|
--4-----------------------|-------------------------|-------------------4-----|


  Q    E  Q    Q    E     Q    Q    Q    Q       E  E  E  Q    Q    E   
--------------------0--|--2-------------------|-----------3----3-------|
-------0--2----3-------|-------3----2---------|--------3------------3--|
--3--------------------|-----------------2----|-----0------------------|
---------------0----2--|--4----0--------------|--0---------------------|
--1----2--4------------|------------4----0----|------------------------|
-----------------------|----------------------|------------------------|


  E  E  E  Q    Q    E     E  E  E  E  Q    E  E     H        E   E   E  E   
-----------5----2-------|-----------0-------------|----------------------9--|
--------3---------------|--0-----0-----0----0--2--|--L-----------11--12-----|
-----2---------------2--|--0--0--------0----0--3--|--L----------------------|
--4---------------------|--2-----------2----2--4--|--L----------------------|
------------------------|-------------------------|-------------------------|
------------------------|-------------------------|-------------------------|


   >                                                                       
   E.   E.  H        E     Q.     S S E  E  E  E      H        Q    E  E   
--10---10---------------|-------------------------|-----------------------|
------------7--------L--|--L------7-8-7--5--3-----|-----------------------|
------------------------|----------------------2--|--/4--------2----0-----|
------------------------|-------------------------|--------------------4--|
------------------------|-------------------------|-----------------------|
------------------------|-------------------------|-----------------------|


  E    E  Q.     Q    E       Q    E  Q    E   E   E   
----------------------0--|--2g3-------7----9--10--12--|
-----2g3--3------3----3--|---------7------------------|
-------------------------|----------------------------|
--L----------------------|----------------------------|
-------------------------|----------------------------|
-------------------------|----------------------------|


   S   E.   E   Q    S  E.  E     Q.     E  H         
--12S-14---14--10----5S-7---5--|--L------3--3--------|
-------------------------------|---------------------|
-------------------------------|---------------------|
-------------------------------|---------------------|
-------------------------------|---------------------|
-------------------------------|---------------------|


             |--3--|  |--3--|                                                 
  Q.     S S E  E  E  E  E  E     S  H.           E.     Q.     Q    Q    E   
--2------0---------------------|----------------------|--------------0----2--|
-----------3-2--0-----0--2--3--|----------------------|---------3---------3--|
-------------------3-----------|--2S-4------------L---|--L------2----0-------|
-------------------------------|----------------------|----------------------|
-------------------------------|----------------------|----------------------|
-------------------------------|----------------------|----------------------|


  H        S  E  E.  E     E.  E.  H        S S    H        S  E.  Q     
--L--------2S-3--3---2--|--0---0------------7-7-|--7--------3S-5---3----|
------------------------|----------3------------|-----------------------|
------------------------|-----------------------|-----------------------|
------------------------|-----------------------|-----------------------|
------------------------|-----------------------|-----------------------|
------------------------|-----------------------|-----------------------|


  Q    E   E   E  E  E  E     E  E  E  E  E  E  E  E   
---------------------------|--------------------0--2--|
--3------------------------|--------------2--3--------|
-------2S--4S--2-----------|-----------2--------------|
------------------4--0-----|-----0--4-----------------|
------------------------2--|--2-----------------------|
---------------------------|--------------------------|


  E  E  E   E   E.   S   Q        H.            Q        H.           Q     
--L--5--7--10--12---12S-14----|--15------------17----|---L-----------------|
------------------------------|----------------------|---------------------|
------------------------------|----------------------|----------------0----|
------------------------------|----------------------|---------------------|
------------------------------|----------------------|---------------------|
------------------------------|----------------------|---------------------|


  Q    Q    H           Q.     Q.     Q       Q     Q    E   Q.      
---------------------|---------------------|-------10----9----------|
---------------------|---------------------|--0-------------10------|
---------------------|--0------0------0----|------------------------|
--4---------0--------|---------------------|------------------------|
-------0-------------|---------------------|------------------------|
---------------------|---------------------|------------------------|


  Q    E  E  Q    Q       Q    Q    H           Q    E  Q.     E  E   
-----------------------|------------2--------|--2-------3------0--3--|
--0-------0------------|--3----2-------------|-------3---------------|
-------0-----2---------|---------------------|-----------------------|
------------------0----|---------------------|-----------------------|
-----------------------|---------------------|-----------------------|
-----------------------|---------------------|-----------------------|


  Q    Q    E  Q.         Q     E   Q    Q     E      H         H         
--7----6----7--9------|--10----10--10----9--------|----------------------|
----------------------|-----------------------10--|---L--------10--------|
----------------------|---------------------------|----------------------|
----------------------|---------------------------|----------------------|
----------------------|---------------------------|----------------------|
----------------------|---------------------------|----------------------|


  Q.     Q    E  Q       Q    E  Q    E  E  E     H        E  E  E  E   
----------------------|------------------------|--------------------2--|
--8------8----8--7----|-------0--2----3--2-----|-----------------3-----|
----------------------|--2------------------2--|-----------------------|
----------------------|------------------------|--0--------0--4--------|
----------------------|------------------------|-----------------------|
----------------------|------------------------|-----------------------|


  Q    E  E  Q    Q       Q.     E  E  Q     E     Q.     E  E  E  E  E   
--2--------------------|---------0--3--5----10--|--9------6--2--0--------|
--2----------3---------|--0---------------------|------------------2-----|
--2-------2------------|------------------------|---------------------3--|
--4----4---------------|------------------------|------------------------|
------------------0----|------------------------|------------------------|
-----------------------|------------------------|------------------------|


  E  E  E  H        E     E  E  E  H        E     E  E  E  H        E   
-----------3-----------|-----------------------|-----------0-----------|
--------0--------------|--------2--3-----------|--------0--------------|
-----0-----------------|-----2-----------------|-----0-----------------|
--0--------------------|--4--------------------|--2--------------------|
-----------------------|-----------------------|-----------------------|
-----------------------|-----------------------|-----------------------|


  E  E  E  H        E     E  E  E  H        E     E  E  E  E  H         
-----------0-----------|-----------------------|--5--------------------|
--------3--------------|-----------0-----------|-----3-----------------|
-----2-----------------|--------0--------------|--------2--------------|
-----------------------|-----0-----------------|-----------4--0--------|
--2--------------------|-----------------------|-----------------------|
-----------------------|--5--------------------|-----------------------|


  Q    Q    Q    Q       Q    Q    Q    Q       Q    Q    Q    Q     
----------------------|----------------------|----------------------|
--0----0----0----0----|--3----3----3----3----|--0----0----0----0----|
--0----0----0----0----|--2----2----2----2----|--0----0----0----0----|
--2----2----2----2----|--4----4----4----4----|--5----5----5----5----|
--2----2----2----2----|--0----0----0----0----|--5----5----5----5----|
--2----2----2----2----|--0----0----0----0----|--5----5----5----5----|


  W                   W                   Q    Q    H         
-------------------|-------------------|------------2--------|
-------------------|-------------------|--0------------------|
--3----------------|--L----------------|--0------------------|
--4----------------|--L----------------|-------0-------------|
--4----------------|--L----------------|---------------------|
--4----------------|--L----------------|---------------------|


  H        Q    Q       Q.     S S Q    Q       Q    Q    H         
--5--------0---------|-----------------------|------------2--------|
----------------3----|--2------3-2-0-----