Gametabs
Home
Tabs
Random

Kingdom End

Average rating: 5.000

5 ratings

Composer:

Tabber:

Style:

Instrument:

Created: January 21, 2011 at 12:00 AM

                                              Kingdom End  
                                  X3: Reunion                                 
                     Alexei Zakharov and Natalia Yakovleva

Capo on the seventh fret. For non electric guitars play up the neck.



     E  E  E  E  E  E  E  E     E  E  E  E  E  E  E  E   
E||--------------------------|--------------------------|
B||-----------------------0--|-----------3-----------0--|
G||-----------2--------0-----|--------2-----------2-----|
D||--------3--------0--------|-----2-----------2--------|
A||-----3--------------------|--0-----------------------|
F||--0-----------2-----------|--------------2-----------|


  E  E  E  E  E  E  E  E     E  E  E  E  E  E  E  E     
--------------------------|-----------------------0---||
-----------------------0--|-----------3---------------||
-----------2--------0-----|--------2-----------2-----*||
--------3--------0--------|-----2-----------2--------*||
-----3--------------------|--0------------------------||
--0-----------2-----------|--------------2------------||


  E  E  E  E  E  E  E  E     E  E  E  E  E  E  E  E   
--------------------------|--0-----------------------|
--1-----0--1--3-----1--3--|-----------3--1-----0--1--|
--------------------------|--------2-----------------|
-----------------0--------|-----2-----------2--------|
-----3--------------------|--0-----------------------|
--0-----------2-----------|--------------------------|


  E  E  E  E  E  E  E  E     E  E  E  E  Q    E  E     E  E  E  E  E  E  E  E   
--------------------------|-------------------------|--------------------------|
--------------0--------0--|--1--0----------------0--|--1-----0-----0-----1--3--|
--2-----0--2--------2-----|--------0----------2-----|-----------2--------------|
-----------------0--------|-----------0--2----------|-----------------0--------|
-----3--------------------|--0----------------------|-----3--------------------|
--0-----------2-----------|-------------------------|--0-----------2-----------|


  ^                                                                             
  E  E  E  E  E  E  E  E     E  E  E  E  E  E  E  E     E  E  E  E  Q    E  E   
--0-----------------------|--------------3--------5--|--0----------------------|
--1--------3--1-----1--3--|--1-----0--1--0-----------|--1--0----------------0--|
--2-----2-----------------|-----------2--------0-----|--------0----------2-----|
-----2-----------2--------|-----------------0--------|-----------0--2----------|
--0-----------------------|-----3--------------------|--0----------------------|
--------------------------|--0-----------2-----------|-------------------------|


    E  E  E  S S E  E  E  E     E  E  E  E  E  E  E  E   
|----------------------------|--------------------------|
|----------------------1--3--|--1-----0-----0-----------|
|*--------2--2-2-------0-----|-----------2--------2-----|
|*--------3--3-3----0--------|-----2-----------2-----2--|
|------3--3--3-3-------------|--0-----------------------|
|---0-----0------2-----------|--------------2-----------|


  E  E  E  S S E  E  E  E     E  E  E  E  E  E  E  E     
---------------------------|-----------------------0---||
---------------------1--3--|--1-----0-----0------------||
--------2--2-2-------0-----|-----------2--------2-----*||
--------3--3-3----0--------|-----2-----------2--------*||
-----3--3--3-3-------------|--0------------------------||
--0-----0------2-----------|--------------2------------||


  E  E  E  E  E  E  Q       E  E  E  E  E  E  E  E     E  E  E  E  E  E  E  E   
--------------------5----|--3-----------5-----------|--7-----8-----0-----------|
--1-----0-----0----------|-----------------------0--|-----------------------0--|
-----------2-------------|-----------2--------0-----|--------------------2-----|
-----2-----------2-------|--------3--------0--------|-----------------2--------|
--0----------------------|-----3--------------------|-----7-----7--------------|
--------------2----------|--0-----------2-----------|--4-----------2-----------|


  E  E  E  E  E  E  E  E     E  E  E  E  E  E  E  E   
--3-----------5-----------|--0--------------------0--|
-----------------------0--|-----------3-----------0--|
-----------2--------0-----|--------2-----------2-----|
--------3--------0--------|-----2-----------2--------|
-----3--------------------|--0-----------------------|
--0-----------2-----------|--------------2-----------|


                             ^                        
  E  E  E  E  E  E  E  E     E  E  E  E  E  E  E  E   
--------------------------|--0-----------------------|
--1-----0-----0-----1--3--|--1--------3--1-----1--3--|
-----------2--------------|--2-----2-----------------|
-----------------0--------|-----2-----------2--------|
-----3--------------------|--0-----------------------|
--0-----------2-----------|--------------------------|


  E  E  E  E  E  E  E  E     E  E  E  E  Q    Q       E  E  E  E  E  E  E  E   
--------------3--------5--|--0----------------5----|--3-----------5-----------|
--1-----0--1--0-----------|--1--0------------------|--------0--------------3--|
-----------2--------0-----|--------0---------------|-----------5--------5-----|
-----------------0--------|-----------0--2---------|-----------------0--------|
-----3--------------------|--0---------------------|-----3--------------------|
--0-----------2-----------|------------------------|--0-----------2-----------|


  E  E  E  E  E  E  E  E     E  E  E  E  E  E  E  E     E  E  E  E  Q    E  E   
--7-----8-----0-----------|--3-----------5-----------|--0----------------------|
--------------------0--1--|--------------0--------0--|--1--0----------------0--|
--------------------------|--2-----0--2--------2-----|--------0----------2-----|
--------------------------|-----------------0--------|-----------0--2----------|
-----7-----7-----7--------|-----3--------------------|--0----------------------|
--4-----------------------|--0-----------2-----------|-------------------------|


                                                   NH    
  E  E  E  E  E  E  E  E     E  E  E  E   E  E     Q     
--3-----------5-----------|--7-----8-----10-----<>12----|
--------0--------------3--|-----------------------------|
-----------5--------5-----|-----------------------------|
-----------------0--------|-----------------------------|
-----3--------------------|-----7-----7------7----------|
--0-----------2-----------|--4--------------------------|


    E  E  E  E    E  E    Q       E  E  E  E  H          
--<>3--------------------------|--5--------------------||
----------------<>3-----<>1----|--1--0-----------------||
-------------------------------|--------0--------------||
----------3----------0---------|-----------0--2--------||
-------3-----3-----------------|--0--------------------||
----0-------------2------------|-----------------------||




Duration Legend
---------------
W - whole
H - half
Q - quarter
E - 8th
S - 16th
T - 32nd
X - 64th
. - note dotted
|-n-|  - n-tuplets


Tablature Legend
----------------
L - tied note
x - dead note
g - grace note
(n) - ghost note
> - accentuded note
NH - natural harmonic
AH - artificial harmonic
TH - tapped harmonic
SH - semi harmonic
PH - pitch harmonic
h - hammer on
p - pull off
b - bend
br - bendRelease
pb - preBend
pbr - preBendRelease
brb - bendReleaseBend
\n/ - tremolo bar dip
\n - tremolo bar dive
-/n - tremolo bar Release up
/n\ - tremolo bar inverted dip
/n - tremolo bar return
-\n - tremolo bar Release down
S - shift slide
s - legato slide
/ -  slide into from below or out of upwards
\ -  slide into from above or out of downwards
~ - vibrato
W - wide vibrato
tr - trill
TP - tremolo picking
T - tapping
S - slap
P - pop
< - fade in
^ - brush up
v - brush down

        
Comments

@Parhelion (January 22, 2011 at 5:15 AM)

SO PURDY


@Lemoncobbler (January 22, 2011 at 4:22 PM)

Great job :D


@karathrow (January 29, 2012 at 4:47 AM)

How do I do the harmonics in this tab? I thought <>3 meant that I had to fret 3 and then push down 12 above the fret and pluck or something to that effect? My guitar only has 21 frets so this would be impossible for me unless theres some other way I dont know about.


@Wildtec (January 01, 2014 at 10:21 PM)

Thank you for tabbing this song! So soothing...