Gametabs
Home
Tabs
Random

The Ballad of Liu Lang

Average rating: 5.000

1 ratings

Composer:

Tabber:

Style:

Instrument:

Created: October 27, 2012 at 12:00 AM

            World of Warcraft - Mists of Pandaria
The Ballad of Liu Lang - Lorewalker Amai

Tabbed by Nate Brooks - thedstring

Drop D tuning

e|-5-----1----------|----5---5/7-------|-5-----1----------|
B|-------------3----|-L----------------|-------------3----|
G|-2----------------|------------------|-2----------------|
D|-------3-----0----|----7---8/9-------|-------3-----0----|
A|-0----------------|------------------|-0----------------|
D|-------3-----0----|-L--7---8/9-------|----------3--0----|

|----5-7-----------|-8-108---7---8-7--|8---5-7-----------|
|-L----0-----------|------------------|------------------|
|------------------|-5-7-5---4---5-4--|5---2-4-----------|
|----7-------------|-0========---0====|===---0=======----|
|----8-10----------|------------------|------------------|
|-L----------------|------------------|------------------|

The song basically repeats with different chords like this over
him singing                                          ||
                                   I prefer this one \/
|-2------14--------|-7------0---------|---------------0--|
|-5------17--------|-5------7---------|---------------7--|
|-4------16--------|-7------7---------|---------------7--|
|-0------0---------|-9------9---------|---------------9--|
|------------------|------------------|---------------9--|
|------------------|------------------|---------------0--|

If you use the one I prefer, strum it slowly up and down like
it does in the song
        
Comments

@diralark (October 29, 2012 at 12:48 PM)

Thanks sir thedstring to answer my request, it helps me a lot, I always adore WoW music. I found from youtube today the whole MoP's OST and that is... so delicious :P http://www.youtube.com/watch?v=ajpk0aQfJPY&feature=related http://www.youtube.com/watch?v=LRSbTmIncHc&feature=relmfu

Btw I invite u put this link to your web browser favorites : http://www.gametabs.net/plants-vs-zombies/cerebrawl There, a TrangOul comment contains the explanation to display tabs correctly in comments, like this :

|----5-7-----------|-8-108---7---8-7--|8---5-7-----------|
|-L----0-----------|------------------|------------------|
|------------------|-5-7-5---4---5-4--|5---2-4-----------|
|----7-------------|-0========---0====|===---0=======----|
|----8-10----------|------------------|------------------|
|-L----------------|------------------|------------------|

I like the use u did with "=" character, I never saw it before , & I'll remember it


@thedstring (October 29, 2012 at 4:18 PM)

I have a correction, the 2nd line of tabs should be:

|----5-7-----------|-8-108---7---8-7--|8---5-7-----------|
|-L----0-----------|------------------|------------------|
|------------------|-5-7-5---4---5-4--|5---2-4-----------|
|----7-------------|-0========---0====|===---0=======----|
|----8-10----------|------------------|------------------|
|-L----------------|------------------|------------------|

let the D string ring for the octave part.

and the last chord I made should be

7
7
7
9
9
0

@diralark (October 30, 2012 at 11:48 AM)

btw Composers are : Russell Brower, Neal Acree, Derek Duke, Jeremy Soule ^^, Edo Guidotti, Sam Cardon (different than WoW 1.0)