Gametabs
Home
Tabs
Random

Temple of the Moon

Average rating: 4.833

6 ratings

Composer:

Tabber:

Style:

Instrument:

Created: June 28, 2010 at 12:00 AM

            Temple of the Moon                                            
~World of Warcraft~

Composed by: David Arkenstone
Arranged by: kenor

Rhytm: 3/4 metrum

BPM = 80
                        ÷                                  ÷
                                                           ^                                
     Q    Q    E  E     H.              Q    Q    E  E     H.              Q    Q    E  E   
E||--0---------0--3--|--2------------|--0---------5--3--|--2------------|--0---------0--3--|
B||-------0----------|--0------------|-------1----------|--0------------|-------0----------|
G||------------------|---------------|-------2----------|---------------|------------------|
D||--2---------------|--L------------|--2---------------|--2------------|--2---------------|
A||------------------|---------------|------------------|---------------|------------------|
E||------------------|---------------|------------------|---------------|------------------|

  ÷                                  ÷                                  
  ^               ^                  ^                                  ^              
  H.              Q    Q    E  E     H.              Q    Q    E  E     Q    H         
--2------------|--0---------5--3--|--2------------|--0---------2--3--|--7-------------|
--0------------|--1----1----------|--0------------|-------0----0-----|--7----7--------|
---------------|--2---------------|---------------|------------------|----------------|
--2------------|--2---------------|--2------------|--2---------------|----------------|
---------------|------------------|---------------|------------------|----------------|
---------------|------------------|---------------|------------------|--7-------------|

                     ÷                                  ÷
             ^                                          ^                                
  E  E  Q    Q       H.              Q    Q    E  E     H.              Q    Q    E  E   
-----2--0---------|---------------|------------------|---------------|------------------|
--3----------2----|--L------------|------------------|---------------|------------------|
--0-----2----4----|--L------------|------------------|---------------|------------2--0--|
-------------4----|--L------------|--2---------2--5--|--4------------|--2---------------|
------------------|---------------|-------2----------|--2------------|-------3----------|
------------------|---------------|--0---------------|--0------------|--5---------------|

            ÷
  ^         NH        ^                  ^                 ^                           ^     
  Q.        Q.        Q    Q    E  E     H        E  E     Q    H           E  E  Q    Q     
-------------------|--0---------2--3--|--5--------3--5--|--7-------------|-----2--0---------|
---------<>12------|--0----0----0-----|--5--------------|--7----7--------|--3----------2----|
-------------------|------------------|--5--------------|----------------|--0-----2----4----|
--4---------L------|------------------|-----------------|----------------|-------------4----|
--2---------L------|--2---------------|--0--------------|----------------|------------------|
--0---------L------|--0---------------|-----------------|--7-------------|------------------|

  ÷
                  ^                   ^                 ^                ^    ^         
  H.              Q    E  E  E  E     H        E  E     Q    H           Q    H         
---------------|--5----L-----5--3--|--2--------3--5--|--7-------------|--2----0--------|
--L------------|--5----L-----------|--3--------------|--8----8--------|--3----0--------|
--L------------|--5----L--5--------|-----------------|--9-------------|----------------|
--L------------|-------------------|--0--------------|----------------|--0----2--------|
---------------|--0----L-----------|-----------------|----------------|----------------|
---------------|-------------------|-----------------|--0-------------|----------------|


  ^                  ^                   ^             NH    NH                     
  Q    Q    E  E     Q    E  E  E  E     Q    E  E     E     E     E  E  Q    Q     
--5---------5--3--|--2----------2--3--|--0-------0--------------|--0---------------|
--5---------------|--3-------3--------|--0----0-----------<>12--|--0-----0---------|
--5----5----------|-------2-----------|-------------------------|------------------|
------------------|--0----------------|-------------<>12--------|-----2------------|
--0---------------|-------------------|-------------------------|-------------2----|
------------------|-------------------|--0----------------------|------------------|


  ^                                         ^                    ^                  
  E  E  E  E  E  E     E  E  E  E  E  E     E  E  E  E  E  E     E  E  E  E  E  E   
--5-----------5--3--|--2-----3-----5-----|--7-----------3-----|--5-----------------|
--5-----5-----5-----|--3-----3-----3-----|--0-----------0-----|--7-----7-----7-----|
--5--5-----5--------|-----2-----------5--|--------0--------0--|-----7-----7-----7--|
--------------------|--0--------0--------|-----0-----0--------|--0-----------------|
--0-----------------|--------------------|--------------------|--------------------|
--------------------|--------------------|--3-----------------|--------------------|

                                                                   ÷
  ^                                         ^                      ^                            
  E  E  E  E  E  E     E  E  E  E  E  E     H        E  E     Q    H           Q    Q    E  E   
--5-----------3-----|--2-----5-----3-----|--2-----------2--|--0-------------|--0---------0--3--|
--5-----5-----------|--------------------|--3--------3-----|--L----2--------|-------0----------|
--5--5-----5-----5--|-----2-----2-----2--|--4--------0-----|--L----4--------|------------------|
--------------------|--0-----------------|-----------------|-------4--------|--2---------------|
--0-----------------|--------------------|--2--------------|----------------|------------------|
--------------------|--------------------|-----------------|----------------|------------------|

                     ÷                                                     ÷
  ^                                                     ^                                
  Q.     E  E  E     H.              Q    Q    E  E     Q.     E  E  E     H.            
--2---------------|---------------|--0---------5--3--|--2---------------|---------------|
--0---------------|---------------|-------1----------|--0---------------|---------------|
---------------0--|---------------|-------2----------|---------4--2--0--|---------------|
------------2-----|--4------------|--2---------------|------------------|--4------------|
---------2--------|---------------|------------------|------------------|---------------|
--0---------------|---------------|------------------|--0---------------|---------------|

                                                         ÷
                     ^                           ^                                        
  Q    Q    E  E     Q    H           E  E  Q    Q       H.              Q    Q    E  E   
--0---------2--3--|--7-------------|-----2--0---------|---------------|--0---------0--3--|
-------0----0-----|--7----7--------|--3----------2----|--L------------|-------0----------|
------------------|----------------|--0-----2----4----|--L------------|------------------|
--2---------------|----------------|-------------4----|--L------------|--2---------------|
------------------|----------------|------------------|---------------|------------------|
------------------|--7-------------|------------------|---------------|------------------|

                     ÷                                                     ÷
  ^                                                     ^                                
  Q.     E  E  E     H.              Q    Q    E  E     Q.     E  E  E     H.            
--2---------------|---------------|--0---------5--3--|--2---------------|---------------|
--0---------------|---------------|-------1----------|--0---------------|---------------|
---------------0--|---------------|-------2----------|---------4--2--0--|---------------|
------------2-----|--4------------|--2---------------|------------------|--4------------|
---------2--------|---------------|------------------|------------------|---------------|
--0---------------|---------------|------------------|--0---------------|---------------|

                                                                           ÷
                     ^                 ^                           ^                     
  Q    Q    E  E     H        E  E     Q    H           E  E  Q    Q       H.            
--0---------2--3--|--5--------3--5--|--7-------------|-----2--0---------|---------------|
-------0----0-----|--5--------------|--7----7--------|--3----------2----|--L------------|
------------------|--5--------------|----------------|--0----------4----|--L------------|
--2---------------|-----------------|----------------|-------------4----|--L------------|
------------------|--0--------------|----------------|------------------|---------------|
------------------|-----------------|--7-------------|------------------|---------------|


   ^                        ^                        ^                         ^                 
   E   E   E   E   Q        E   E   E   E   Q        E   E   E   E   E   E     E  E  E  E  Q     
--12--------------12----|--10--------------10----|--12------10------12------|--7-----------7----|
--12--12------12--------|--10--10------10--------|--12------12------12------|--7--7-----7-------|
--12------12------------|--11------11------------|--12--12------12------12--|--7-----7----------|
------------------------|------------------------|--------------------------|--0----------------|
------------------------|------------------------|--------------------------|-------------------|
---0--------------------|---0--------------------|---0----------------------|-------------------|


   ^                         ^                    ^                   ^                 
   E   E   E   E   E   E     E  E  E  E  E  E     E  E  E  E  Q       E  E  E  E  Q     
--12--------------10------|--8-----7-----5-----|--2-----------3----|--0----------------|
--12------12------12------|--5-----5-----5-----|--3--3-----3-------|--0----------------|
--12--12------12------12--|--5--5-----5-----5--|--2-----2----------|--0-----------0----|
--------------------------|--------------------|--0----------------|-----2-----2-------|
--------------------------|--0-----------------|-------------------|--------2----------|
---0----------------------|--------------------|-------------------|--0----------------|


  ^                    ^                   ^                    ^                 
  E  E  E  E  E  E     E  E  E  E  Q       E  E  E  E  E  E     E  E  E  E  Q     
--0-----------2--0--|-------------------|--0-----------2--3--|--2-----------2----|
--0--0-----0--------|--3-----------3----|--0--0-----0--------|--3--3-----3-------|
--0-----0-----------|--2--2-----2-------|--0-----0-----------|--2-----2----------|
--------------------|--4-----4----------|--------------------|--0----------------|
--------------------|-------------------|--------------------|-------------------|
--0-----------------|--0----------------|--0-----------------|-------------------|

                                                                              ÷
  ^                    ^                    ^        ^       ^                ^             
  E  E  E  E  E  E     E  E  E  E  E  E     H        Q       H        Q       H.            
--0--------------0--|--------------------|----------------|----------------|--0------------|
--0-----0-----3-----|--1-----0-----------|--3--------5----|--7-------------|--0------------|
--0--0-----0--------|--2-----2-----2-----|--2-------------|-----------7----|--0------------|
--------------------|--2--2-----2-----2--|--4--------5----|--7-------------|--2------------|
--------------------|--0-----------------|--5--------5----|--5-------------|--2------------|
--0-----------------|--------------------|----------------|----------------|--0------------|

                                  ÷
     NH      NH      NH   NH      NH             
     Q       Q       E    E       H.             
--<>12------------<>12-------|-----------------||
----------<>12---------------|--<>7------------||
------------------------<>5--|-----------------||
-----------------------------|-----------------||
-----------------------------|-----------------||
-----0-----------------------|-----------------||




Legend:
-------
H - half
Q - quarter
E - 8th
. - note dotted
÷ - fermata
L - tied note
NH - natural harmonic
^ - brush up
        
Comments

@diralark (June 28, 2010 at 11:21 PM)

Oh yes I like this melody ! U did a great job about this nice tune ^^ Thanks


@Joaosenpai (June 29, 2010 at 3:53 AM)

Wonderful job! It's beautiful! Thank you.


@Mohammedsalmachtigebaard (June 16, 2013 at 9:25 PM)

Just awesome. Great job!


@Nemiy (April 05, 2014 at 3:16 PM)

Thank you for this wonderful tab :D

I have tried playing it with capo on the 5th thread. It sounds pretty accurate :)