Gametabs
Home
Tabs
Random

Storm Peaks

Average rating: 4.000

1 ratings

Composer:

Tabber:

Style:

Instrument:

Created: January 27, 2014 at 12:00 AM

            ------------------------------------------------------------------------------
                         Storm Peaks - World of Warcraft
------------------------------------------------------------------------------
Tabbed by: Tritoch21
E-mail: [email protected]

Tuning: Standard 

e|-------0---2---3----5-------3-----------2----0-----------------------------|
B|--------------------------------5----------------3-------1----0------------|
G|-------0--------------------4-------5------------0-------0-----------------|
D|-----------2------------5--------------------------------------------------|
A|---------------2----3--------------------------------3---------------------|
E|---0---------------------------------------------3-------------------------|



e|----------------------------------0----2----3-----7-----------8---7--------|
B|-----------3---------------3--------------------------------------8-----8--|
G|---2-------2-----------2----------0-----------------------7-------7-----7--|
D|-------4-----------4-------------------2--------------9--------------------|
A|---5-----------5----------------------------2----10------------------10----|
E|-------------------------------0-------------------------------------------|



e|----------3-----7----5-----------3----2----0-------------------------------|
B|--3-------3------------------3------------------3--------------------------|
G|--4-------4--------------2-------------------------------------------------|
D|--5------------------0-----------------------------------------------------|
A|------5--------------------------------------------------------------------|
E|--3------------------------------------------------------------------------|

        
Comments

No comments yet