Gametabs
Home
Tabs
Random

Stonefire (advanced version)

Average rating: 5.000

2 ratings

Composer:

Tabber:

Style:

Instrument:

Created: March 21, 2010 at 12:00 AM

                World of Warcraft - Stonefire (advanced version)


Music by David Arkenstone, sequenced & tab by Kenor, mix for solo guitar by diralark
Guitar solo



            ^            ^                     ^            ^               
      E  E  Q    Q       H.              E  E  Q    Q       E  E  H         
D#||--------0---------|---------------|--------0---------|-----------------|
A#||--------1----1----|--3------------|--------1----1----|--3--------------|
F#||--------2---------|--4------------|--------2---------|--4--5--4--------|
C#||-----2------------|--5------------|-----2------------|--5--------------|
G#||--0---------------|---------------|--0---------------|-----------------|
D#||------------------|--3------------|------------------|--3--------------|


        ^            ^                     ^            ^               
  E  E  Q    Q       H.              E  E  Q    Q       E  E  H         
--------0---------|---------------|--------0---------|-----------------|
--------1----1----|--3------------|--------1----1----|--0--------------|
--------2---------|--4------------|--------2---------|--0--2--0--------|
-----2------------|--5------------|-----2------------|-----------------|
--0---------------|---------------|--0---------------|-----------------|
------------------|--3------------|------------------|--3--------------|


                               ^                   ^            
  E  E  Q    E    S S    E  E  Q    E  E     E  E  E  E  E  E   
--------0----L--2g0---|--0-----0----0--2--|--3--------5--3--2--|
--------1-----------3-|--------1----------|--------0-----------|
--2-----2-------------|--------2----------|--------0-----------|
-----2----------------|-----2-------------|-----0--------------|
--0-------------------|--0----------------|--------------------|
----------------------|-------------------|--3-----------------|


        ^                 ^                     ^            
  E  E  H           E  E  Q    E    S S    Q    E  E  E  E   
--0-----0--------|--------0----L--2g0---|--0----0--------0--|
--------1--------|--------1-----------3-|-------1-----1-----|
--------2--------|--2-----2-------------|-------2--2--------|
-----2-----------|-----2----------------|-------------------|
--0--------------|--0-------------------|--0----------------|
-----------------|----------------------|-------------------|


        ^                       ^                    ^              
              |-3-|                                                 
  E  E  E  E  S S S E     E  E  E  E  E  E     E  E  Q    E    S S  
-----------------------|--------0-----------|--------0----L--2g0---|
--3-----0--1--0-1-0----|--0-----0-----0-----|--------1-----------3-|
--------0-----------2--|--------0--------0--|--2-----2-------------|
-----0-----------------|-----------2--------|-----2----------------|
-----------------------|-----2--------------|--0-------------------|
--3--------------------|--0-----------------|----------------------|


                                V  -- --    -- -- -- -- --        
        ^                    ^                          ^         
                                            |--3--|               
  E  E  E  E  E  E     E  E  E  E  E  E     S  S  S  E  H         
--0-----0-----0--2--|--3--------5--7--8--|--7--8--7--5--0--------|
--------1-----------|--------0-----------|--------------1--------|
--------2--2--------|--------0-----------|--------------2--------|
-----2--------------|-----0--------------|-----------------------|
--0-----------------|--------------------|-----------7-----------|
--------------------|--3-----------------|--5--------------------|


  -- -- --   -- -- -- --    -- -- -- --|                                
        ^                                ^                              
             |--3--|        |--3--|                                     
  E  E  Q    S  S  S  E     S  S  S  E   Q    E  E     E  E  Q    Q     
--8--7--8----7--8--7--5--|--7--8--7--5---3----5--7--|--5---------------|
-------------------------|---------------0----------|-------------0----|
--------5----------------|---------------0----------|--------5---------|
-----5--5----------------|--5-----------------------|--------7---------|
--------7----------------|--------------------------|--0--7------------|
--8----------------------|-----------7--------------|------------------|


                        ^                       ^            
  H.              E  E  E  E  E    S S    E  E  E  E  E  E   
---------------|--------0-----L--2g0---|--0-----0-----0--2--|
---------------|--------1--1---------3-|--------1--1-----1--|
--2------------|--2-----2-----2--------|--------2-----2-----|
---------------|-----2-----------------|-----2--------------|
--0------------|--0--------------------|--0-----------------|
---------------|-----------------------|--------------------|


        ^                    ^                    ^               
  E  E  E  E  E  E     E  E  E  E  E  E     E  E  E  E  E    S S  
--3--------5--3--2--|--0-----0-----------|--------0-----L--2g0---|
--------0-----------|--------1--1-----1--|--------1--1---------3-|
--------0-----0-----|--------2-----2-----|--2-----2-----2--------|
-----0-----0-----0--|-----2--------------|-----2-----------------|
--------------------|--0-----------------|--0--------------------|
--3-----------------|--------------------|-----------------------|


        ^                    ^                       ^            
                                   |-3-|                          
  E  E  E  E  E  E     E  E  E  E  S S S E     E  E  E  E  E  E   
--0-----0--------0--|-----------------------|--------0-----------|
--------1--1--1--1--|--3-----0--1--0-1-0----|--0-----0-----0-----|
--------2--2--2-----|--------0-----0-----2--|--------0--------0--|
-----2--------------|-----0-----0--------0--|-----------2--------|
--0-----------------|-----------------------|-----2--------------|
--------------------|--3--------------------|--0-----------------|


                                                        V  -- --  
        ^                       ^                    ^            
  E  E  E  E  E    S S    E  E  E  E  E  E     E  E  E  E  E  E   
--------0-----L--2g0---|--0-----0-----0--2--|--3--------5--7--8--|
--------1--1-------1-3-|--------1--1-----1--|--------0-----------|
--2-----2-----2--------|--------2-----2-----|--------0-----------|
-----2-----------------|-----2--------------|-----0--------5-----|
--0--------------------|--0-----------------|-----------5-----5--|
-----------------------|--------------------|--3-----------------|


  -- -- -- -- -- -- -- --    -- -- -- -- -- -- -- --  
              ^                    ^                  
  |--3--|                                |--3--|      
  S  S  S  E  E  E  E  E     E  E  E  E  S  S  S  E   
--7--8--7--5--------------|--8--7--8-----7--8--7--5--|
--------------5-----------|--------------------------|
--------------5--5-----5--|--------5-----------------|
--------------7-----7-----|-----5--5--5-----------5--|
-----------7--------------|--------7-----7-----------|
--5-----------------------|--8-----------------------|


  -- -- -- --|                                                  
               ^                                      ^         
  |--3--|                                                       
  S  S  S  E   E  E  E  E     E  E  Q    Q       Q    H         
--7--8--7--5---3-----5--7--|--5-----0---------|----------------|
---------------0-----------|--------1----3----|-------1--------|
---------------0-----0-----|-----2-------4----|-------2--------|
--5---------------0-----0--|------------------|-------2--------|
-----------5---------------|--0---------------|--0-------------|
---------------------------|------------------|----------------|


  E  E  E  E  E  E     E  E  H           E  E  Q    E  E     E  E  Q    E  E   
--------------------|-----------------|--------0----------|-------------------|
-----------------0--|-----------------|-------------3--1--|--0----------------|
--------2-----2-----|--0--------------|--2----------------|--0--2--0----------|
--4-----------0-----|--2-----2--------|-------------------|--------0----------|
--5--0-----0--------|--3-----3--------|--0-----3-------0--|-----2-------2-----|
--------------------|-----3-----------|-----0-------0-----|--3-------------3--|


  E  E  E  E  E  E     E  E  Q    E  E     E  E  E  E  E  E   
--------------------|--------0----------|--------------------|
--------3--------0--|--0----------------|--0--------1--------|
--2-----2-----2-----|--0-------------0--|-----------------2--|
--4-----------0-----|--2-----2----------|--4-----------------|
--5--0-----0--------|-----2-------2-----|--2-----2--------2--|
--------------------|--0----------------|-----2--------2-----|


                           V  -- --|                         
  E  E  Q    Q       E  E  E  E  E   E     E  E  Q    E  E   
------------------|--------5-----5---7--|--3-----0----------|
-----0------------|--3---------------0--|-------------------|
------------------|---------------------|--0----------------|
-----4--4---------|--4-----7-----7------|--2-----2----------|
--2----------2----|--5--0--------5------|--3-----3-------3--|
-----2------------|-----------5---------|-----3-------3-----|


                                                VIII -- --|            
             |-3-|                                                     
  E  E  Q    S S S E       E  E  Q    E  E      E    E  E   E  E   E   
--------0------0------|---------------------|-----------8---7--8--10--|
-------------3---3-1--|----0----------------|--10---12-------------0--|
--2-------------------|--1g0--2--0----------|---------------0------0--|
----------------------|----------0----------|------------------0------|
--0-----3----------0--|-------2-------2-----|---8-------8-------------|
-----0-------0--------|----3-------------3--|--------8----------------|


   XII --| X        VII                                                  
                    ^                                         ^          
   E   E   E  E     H.              W                   E  E  Q.     E   
--12----------8--|--7------------|--L----------------|--------0---------|
------13--10-----|---------------|-------------------|--------1------3--|
-----------------|---------------|-------------------|--2-----2---------|
----------10-----|---------------|--L----------------|-----2------------|
--12----------0--|--7------------|-------------------|--0---------------|
------12---------|--7------------|--L----------------|------------------|


        ^                    ^                       ^         
                                   |-3-|                       
  E  E  E  E  E  E     E  E  E  E  S S S E     E  E  H         
--0-----0-----0--2--|--3--------5--3-5-3----|--0-----0--------|
--------1-----------|--------0-----------7--|--------1--------|
--------2--2--------|--------0--------------|--------2--------|
-----2--------------|-----0-----------------|-----2-----------|
--0-----------------|-----------------------|--0--------------|
--------------------|--3--------------------|-----------------|


        ^                ^                    ^            
  E  E  H           Q    E  E  E  E     E  E  E  E  E  E   
--------0--------|--0----0--------0--|--------------------|
--------1--------|-------1-----1-----|--3-----0--1--0-----|
--2-----2--------|-------2--2--------|--------0--------2--|
-----2-----------|-------------------|-----0--------------|
--0--------------|--0----------------|--------------------|
-----------------|-------------------|--3-----------------|


                                           V  -- --     --  
        ^  ^  v               ^                  ^          
  E  E  E  E  E  S S    E  E  Q.     E     E  E  Q.     E   
--------0--------0---|--------0---------|--8--7--8---------|
--0-----0--------1-0-|--------1------3--|--5-----5------7--|
--------0------------|--2-----2---------|--------5---------|
-----------2--2------|-----2------------|--------7---------|
-----2-----2--2------|--0---------------|-----7------------|
--0--------0--0------|------------------|--5---------------|


  -- --|                                     VIII         V    -- -- -- --  
         ^                       ^                        ^                 
                                             |---3---|         |--3--|      
  E  E   E  E  E  E      E   E   H           S     S S E  Q    S  S  S  E   
--7---------5--7--8--|---7----------------|--8----10-8-7--8----7--8--7--5--|
--8------0-----------|--10--10------------|---------------5----------------|
---------------------|-----------9--------|--9---------7--5----7--------5--|
--5------5-----------|----------10--------|---------------5----------------|
-----5---------------|---0---7--12--------|---------------7----------------|
---------------------|--------------------|--8---------3-------------------|


  -- -- -- --|               V  -- --                         
               ^                   ^                          
  |--3--|                                                     
  S  S  S  E   Q    E  E     E  E  H           Q    H         
--7--8--7--5---3----5--7--|--5--------------|----------------|
---------------0----------|--------5--------|----------------|
--7--------5---0----5--7--|--------5--------|----------------|
--5-----------------------|--7-----7--------|----------------|
--------------------------|-----7-----------|--0-------------|
-----------7--------------|--5--------------|----------------|


                               V           -- -- -- --|             
        ^                      ^                        ^           
                      |-3-|                |--3--|                  
  E  E  Q    E  E     S S S E  H           S  S  S  E   Q    E  E   
--------0----5-----|--5-7-5-------------|--------------------------|
--------1-------8--|--------8--5--------|-----5---------0----------|
--------2----------|-----------5--------|--7-----7--5---0----5-----|
-----2-------------|-----------7--------|-----------------------5--|
--0----------------|--0-----7-----------|---------------7----------|
-------------------|--------------------|--0--------7--------------|


                                                    V           
                               ^                    ^           
  E  E  E  E    E  E     E  E  E  E  E  E     E  E  E  E  Q     
----------------------|--------0-----------|-----0--5--7--8----|
--------------4g0-----|--------1--------0--|--1----------------|
--2--------0-------0--|--2-----2--0--2-----|--------5----------|
--------2-------------|-----2--------------|-----2--7----------|
-----2----------------|--0-----------------|--0----------------|
--0-------------------|--------------------|-------------------|


           ^                                          ^            
  |-3-|                                |-3-|                       
  S S S E  Q    Q       E  E  E  E  E  S S S    E  E  E  S S Q     
--7-8-7-5--3----5----|--0--------------1-0---|--0-----0--1-0------|
-----------0---------|--------------0------3-|--------1------3----|
-----------0---------|-----------0-----0-----|--------2-----------|
-----------2---------|--------2--------------|-----2--------------|
---------------------|-----2-----------------|--0-----------------|
--0-----7------------|--0--------------------|--------------------|


        ^                                                        
             |-3-|                                               
  E  E  Q    S S S E     E  E  E  E  E  E     E  E  E  E  E  E   
--0-------------------|--------3-----2-----|--0-----------------|
--------1----1-3-1-0--|--1-----0-----0-----|--------------0-----|
--------2-------------|-----0-----0-----2--|--0--------0-----0--|
-----2----------------|-----------------5--|--------2-----------|
--0-------------------|--------------------|-----2--------------|
----------------------|--0-----------------|--0-----------------|


        ^                                                          
             |-3-|                                                 
  E  E  Q    S S S S. T    E  E  Q    E  E     E  E  E  S S E  E   
--------0---------------|-------------------|--------3------2-----|
-----0--1----0-1-0------|--------1-------0--|--------0------0-----|
--2-----2----------2--2-|--2--0--2----2-----|--2--0-----0-2-0--0--|
-----2------------------|-----2-------------|---------------------|
--0---------------------|--0----------------|---------------------|
------------------------|-------------------|--0------------------|


              |-3-|                                        
  E  E  E  E  S S S E      H.               H.             
-----------------------|-----------------|---------------||
-----------------------|-----------------|---------------||
--0--------0--2-4-2-0--|---2-------------|--L------------||
--------2--------------|-----------------|--L------------||
-----2-----------------|---0-------------|--L------------||
--0--------------------|--(0)------------|--L------------||




Duration Legend
---------------
W - whole
H - half
Q - quarter
E - 8th
S - 16th
T - 32nd
X - 64th
. - note dotted
|-n-|  - n-tuplets


Tablature Legend
----------------
L - tied note
x - dead note
g - grace note
(n) - ghost note
> - accentuded note
NH - natural harmonic
AH - artificial harmonic
TH - tapped harmonic
SH - semi harmonic
PH - pitch harmonic
h - hammer on
p - pull off
b - bend
br - bendRelease
pb - preBend
pbr - preBendRelease
brb - bendReleaseBend
\n/ - tremolo bar dip
\n - tremolo bar dive
-/n - tremolo bar Release up
/n\ - tremolo bar inverted dip
/n - tremolo bar return
-\n - tremolo bar Release down
S - shift slide
s - legato slide
/ -  slide into from below or out of upwards
\ -  slide into from above or out of downwards
~ - vibrato
W - wide vibrato
tr - trill
TP - tremolo picking
T - tapping
S - slap
P - pop
< - fade in
^ - brush up
v - brush down


        
Comments

No comments yet