Gametabs
Home
Tabs
Random

Slaughtered Lamb

Average rating: 5.000

3 ratings

Composer:

Tabber:

Style:

Instrument:

Created: January 14, 2010 at 12:00 AM

            Slaughtered Lamb
~World of Warcraft~ (Taverns of Azeroth)
Composed by: David Arkenstone
Arranged by: kenor

Rhytm: 3/4 metrum


     Q    Q   E E     Q    Q   E E     E  E  H   E E     Q   E E E E     Q    Q   E E
E||----------------|----------------|-----------------|---------------|----------------|
B||-------3--------|-------3--------|--------1--------|--L------------|-------3--------|
G||-------0--------|-------0--------|-----------------|---------------|-------0--------|
D||----------------|----------------|--3--------------|---------------|----------------|
A||-----------x-x--|-----------x-x--|-----3------x-x--|--x---x-x-x-x--|-----------x-x--|
E||--3-------------|--3-------------|--1--------------|--L------------|--3-------------|


  Q    Q   E E     Q    Q    Q       Q    Q   E E     Q    Q    Q       E  E  Q    Q     
----------------|-----------------|----------------|-------3---------|--------1---------|
-------3--------|-------1----0----|----------------|------------3----|--------3----3----|
-------0--------|-------2---------|--2-------------|-------4---------|-----2------------|
----------------|-----------------|----------------|-----------------|--0---------------|
-----------x-x--|-----------------|-----------x-x--|-----------------|------------------|
--3-------------|--1--------------|-------1--------|--3--------------|------------------|


                                             ^            ^                 
  Q    Q    Q       E   E  Q    Q       Q    Q    Q       E   E  Q    Q     
-----------------|-------------------|-------3----5----|--1p--0------------|
-------1----3----|--1p--0------------|-------0---------|---------3---------|
-------2---------|---------0---------|-------0---------|--2-----------2----|
--3--------------|--------------0----|-----------------|--0----------------|
-----------------|-------------------|-----------------|-------------------|
-----------------|--3----------------|--3--------------|-------------------|


  ^                         ^                                               
  E  E  E  E  E  E     Q    Q   E E     E  E  Q    Q       E  E  Q    Q     
--1-----0-----------|----------------|--------3---------|--1---------------|
--3--------3-----1--|--3-------------|--------0----3----|--------3---------|
-----2--------------|-------0--------|------------------|-----2-------2----|
--3-----------------|-------0--------|-----0------------|--0---------------|
--------------0-----|-------2---x-x--|------------------|------------------|
--------------------|--3-------------|--3---------------|------------------|


                     |--3--|                                                     
  E  E  Q    Q       S  S  S E  Q    Q       Q    E  E  Q       E  E  Q    Q     
------------------|-----------------------|------------------|------------------|
--------1----3----|--1h-3p-1-0------------|----------0--1----|--3---------------|
--------2---------|--0----------0---------|-------2----------|--------0---------|
-----0------------|-------------0---------|--3---------------|-----0------------|
------------------|-----------------------|--3---------------|-------------2----|
--1---------------|------------------3----|------------------|--3---------------|


                       ^                                                      
  E  E  E  E  E  E     Q    E  E  Q       E  E  Q    Q       E  E  Q    Q     
--------------------|------------------|--------3---------|--1---------------|
--------------------|------------------|--------0----3----|--------3---------|
-----------0--2-----|--0---------------|------------------|-----2-------2----|
--------3--------3--|--0-------0-------|-----0------------|--0---------------|
-----3--------------|-------2-----2----|------------------|------------------|
--1-----------------|--3---------------|--3---------------|------------------|


                                                  ^            ^                 
                        |--3--|                                                  
  E  E  Q    Q       E  S  S  S Q    Q       Q    Q    Q       E   E  Q    Q     
------------------|-----------------------|-------3----5----|--1p--0------------|
--------1----3----|--1--0h-1p-0-----------|-------0---------|---------3---------|
--------2---------|-------------0---------|-------0---------|--2-----------2----|
-----0------------|------------------0----|-----------------|--0----------------|
------------------|-----------------------|-----------------|-------------------|
--1---------------|--3--------------------|--3--------------|-------------------|


                        ^                                                      
  E  S S E  E  E  E     Q    E  E  Q       E  E  Q    Q       E  E  Q    Q     
--1----0----------0--|------------------|--------3---------|--1---------------|
---------3-----1-----|--3---------------|--------0----3----|--------3---------|
-----2---------2-----|--0---------------|------------------|-----2-------2----|
--0------------------|----------0-------|-----0------------|--0---------------|
---------------------|-------2-----2----|------------------|------------------|
------------1--------|--3---------------|--3---------------|------------------|


                        |--3--|                                                   
  E  E  Q    Q       E  S  S  S Q    Q       E  E  E  E  Q       E  E  Q    Q     
------------------|-----------------------|-------------------|------------------|
--------1----3----|--1--0h-1p-0-----------|-----------0--1----|--3---------------|
--------2---------|-------------0---------|--------2----------|--------0---------|
-----0------------|------------------0----|--------3----------|-----0------------|
------------------|-----------------------|-----3-------------|-------------2----|
--1---------------|--3--------------------|--1----------------|--3---------------|


             ^        ^                       ^                                   
                                                           |--3--|                
  Q    E  E  E  E     Q    E  E  Q       Q    Q    Q       S  S  S E  E  E  Q     
-------------------|------------------|-------3----2----|--0h-2p-0---------------|
-------------------|-------3----------|-------0---------|-------------3-----0----|
-------------0--4--|--2-------2-------|-----------------|----------0-------------|
-------2--4--2-----|--4----------4----|-------2---------|----------------2-------|
--3----------3-----|--5---------------|--2--------------|------------------------|
-------------------|------------------|--0--------------|--0---------------------|


                      ^                        ^                              
  Q    E  E  E  E     Q    E  E  E  E     Q    Q    Q       E  E  E  E  Q     
-------------------|-------0-----------|-------3----2----|--5-----3-----0----|
-------------------|----------0-----0--|-------0---------|--5-----5-----0----|
--2-------0-----0--|-------------0-----|-----------------|-----4-----4-------|
-------------4-----|--2----------------|-------2---------|-------------------|
--5----------------|--2----------------|--2--------------|-------------------|
-------5-----------|--0----------0-----|--0--------------|--0----------------|


                       ^                       ^                                  
  E  E  E  E  E  E     Q    E  E  Q       Q    Q    Q       E  E  E  E  E   S  S  
-----------0--2--3--|--0---------------|-------3----2----|--0--------------------|
--3-----------------|--0---------------|-------0---------|--------3-----0h--1p-0-|
--------2-----------|------------------|-----------------|-----0-----------------|
-----4--------0-----|----------2-------|-------2---------|-----------2-----------|
--5-----------------|-------2-----2----|--2--------------|-----------------------|
--------------------|--0---------------|--0--------------|--0--------------------|


                      ^                                                       
  Q    E  E  E  E     Q    E  E  E  E     Q    E  E  Q       Q    E  E  Q     
-------------------|-------0-----------|------------------|------------------|
-------------------|----------0-----0--|------------------|------------------|
--2-------0-----0--|-------------0-----|-------------0----|----------0--2----|
--0----------4-----|--2----------------|-------2--4--2----|-------4----------|
-------0-----5-----|--2----------------|------------------|--5----------5----|
-------------------|--0----------0-----|--0----------0----|------------------|


                      ^                                                   
  E  E  Q    E  E     Q    Q   E E     Q    Q    Q       E  E  Q    Q     
-------------------|-------0--------|-------3---------|--------1---------|
--0----------------|-------0--------|------------3----|--------3---------|
-------------------|----------------|-------4---------|-----2------------|
--------2----0--4--|--2-------------|-----------------|--0----------0----|
-----2-------0-----|--2--------x-x--|-----------------|------------------|
--0----------------|--0-------------|--3--------------|------------------|


                                             ^            ^                 
  Q    Q    Q       E   E  Q    Q       Q    Q    Q       E   E  Q    Q     
-----------------|-------------------|-------3----5----|--1p--0------------|
-------1----3----|--1p--0------------|-------0---------|---------3---------|
-------2---------|---------0---------|-------0---------|--2-----------2----|
--3--------------|--------------0----|-----------------|--0----------------|
-----------------|-------------------|-----------------|-------------------|
-----------------|--3----------------|--3--------------|-------------------|


  ^                         ^                                               
  E  E  E  E  E  E     Q    Q   E E    E  E  Q    Q       E  E  Q    Q     
--1-----0-----------|----------------|--------3---------|--1---------------|
--3--------3-----1--|--3-------------|--------0----3----|--------3---------|
-----2--------------|-------0--------|------------------|-----2-------2----|
--3-----------------|-------0--------|-----0------------|--0---------------|
--------------0-----|-------2---x-x--|------------------|------------------|
--------------------|--3-------------|--3---------------|------------------|


                     |--3--|                                       |--3-|             
  E  E  Q    Q       S  S  S E  Q    Q       Q    E  E  Q       E  S  S S  Q    Q     
------------------|-----------------------|------------------|-----------------------|
--------1----3----|--1h-3p-1-0------------|----------0--1----|--3--1p-0--------------|
--------2---------|--0----------0---------|-------2----------|----------2p-0---------|
-----0------------|-------------0---------|--3---------------|-----------------------|
------------------|-----------------------|--3---------------|------------------2----|
--1---------------|------------------3----|------------------|--3--------------------|


                       ^                                                      
  E  E  E  E  E  E     Q    E  E  Q       Q    E  E  Q       Q    E  E  Q     
--------------------|------------------|------------------|------------------|
--------------------|------------------|------------------|------------------|
-----------0--2-----|--0---------------|------------------|------------------|
--------3--------3--|--0-------0-------|----------0-------|----------0-------|
-----3--------------|-------2-----2----|-------2-----2----|-------2-----2----|
--1-----------------|--3---------------|--3---------------|--3---------------|


  ^              
  H.             
---------------||
---------------||
--0------------||
--0------------||
--2------------||
--3------------||




Legend:
-------

H - half
Q - quarter
E - 8th
S - 16th
. - note dotted
|-n-|  - n-tuplets
L - tied note
x - tap guitar body
h - hammer on
p - pull off
^ - brush up
        
Comments

@Zoomer (January 15, 2010 at 11:52 AM)

Oh wow thank you. So nice :) Especially thanks for the midi version :D Keep it up! (stone fire maybe? :D)


@pokemaughan (January 16, 2010 at 10:45 PM)

Oh wow, this is pretty. Love it!


@diralark (December 27, 2013 at 8:39 PM)

Perfect tab as always with you !