Gametabs
Home
Tabs
Random

Moonfall ~ Temple ~ Sacred Medley

Average rating: 5.000

2 ratings

Composer:

Tabber:

Style:

Instrument:

Created: November 21, 2011 at 12:00 AM

                                      Moonfall ~ Temple ~ Sacred        from World of Warcraft 

Music by Jason Hayes/Tracy W. Bush/Derek Duke/Glenn Stafford
 >> Piano arr. by Matt Fuss >> Solo guitar by Diralark                                                                

U want hear the melodies : http://www.youtube.com/watch?v=BCLP7SVNi8Q

Guitar (Capo 3), let ring

     Moonfall, tempo:62      
    ^           ^                 ^                                     ^                     
     E        E  Q    Q    Q       E  E  E  E  H           Q    E.  S    E  E  Q    Q    Q     
E||-----------------------------|-----------------------|-------------|-------------0---------|
B||--0----------------3----1----|--0--------------------|-------1---1-|--0---------------3----|
G||--------------2--------------|--------------2--------|--2----------|--------2--------------|
D||--------------3--------------|--0--------2-----------|-------------|--3-----0--------------|
A||-----------3-----------------|--7-----0--------------|-------------|--5--0-----------------|
E||--1--------------------------|--5--0-----------------|-------------|-----------------------|


  Am/C                       Em                      F#                       II                     
  ^                          ^                       ^                        ^                      
  E    E  E  E  Q    Q       E  E  E  E  H           E  E  E  E   H           E   E  E  E  H         
--------------------------|--------------0--------|------------------------|------------------------|
--1------------------1----|--0--------------------|------------------------|------------------------|
--2-----------------------|--0--------------------|--3---------------------|--2------------5--------|
--2-------------2---------|--2-----------2--------|--4---------------------|--2---------------------|
--3-------0--3------------|--2--------2-----------|--4--4-----3h--4--------|--3---------3-----------|
-------0------------------|-----0--3--------------|--2-----6---------------|--5p--0--5-----0--------|


  Em                       C/E                                     Em                      
  ^                        ^                          ^            ^                       
  E  E  E   E  H           E   E  E   E  Q    Q       Q    Q       E  E  E  E   Q    Q     
--0---------------------|--0-----------------------|--0---------|--0----------------------|
--0---------------------|--1-----------------------|--1---------|--0----------------------|
--0---------------------|--0-----------------------|--0---------|--0----------------------|
--2---------------------|--2-----------------------|--2---------|--2----------------------|
-----2---------2--------|------3-------------------|-------3----|--------2-----------2----|
--0-----0h--3-----------|--0------0h--2--3----2----|--0---------|--0--0-----0h--3---------|


                        Temple, tempo:78                                                                             
                                        ^                          ^                                       
  W                     E      E  E  E  E  E  E  E     E  E  E  E  E  E  E  E     E  E  E  E  E  E  E  E   
-------------------||---5---------------------------|--4-----------------------|--5-----------------------|
-------------------||-------------1-----0-----------|--------5-----4-----------|--------1-----3-----1-----|
-------------------||*------------------------2-----|--------------------6-----|--------------2-----------|
--2----------------||*------------2-----0-----2-----|--------6-----4-----6-----|--------2-----0-----2-----|
-------------------||---0------3-----3-----3-----3--|--4-----------------------|--0--3-----3-----3-----3--|
-------------------||-------------------------------|-----4-----4-----4-----4--|--------------------------|


                             F#                                                                         
  E  E  E  E  E  E  E  E     E  E  E  E  Q    Q       E  E  Q    Q    Q       E  E  E  E  E   E  E  E   
--------------------------|-------------------2----|--0---------------0----|---------------------------|
--0-----------0-----------|------------------------|--------1----0---------|--0------------------------|
--0--------------0--------|--3---------------------|--2---------------2----|--0-----0------------0-----|
--2-----2-----------4--2--|--4-----4---------------|--2--2-------2----2----|--2--------2------------2--|
--2--2-----2--------------|--4--4--------4---------|--3-----2----3---------|--2--2--------3p--2--------|
--0-----------------------|--2--------6------------|-----------------------|--0------------------------|


1.___________________
                                                                               ^                     
  E  E  E  E  E  E  E  E     E  E  E  E  E  E  Q       E  E  Q    Q    Q       Q.     E  Q    E  E   
--------------------------|-------------------------|-----------------------|-----------------------|
--0-----------------0-----|--1--------0--------0----|--1--------------------|--0--------------------|
--0-----------0-----------|--0-----------2----------|--0--0--0---------2----|---------2--0-------2--|
--2--2--2--------4--2-----|--2-----2--------2-------|--2----------4----2----|--2--------------------|
--2--------2-----------2--|--3--3-------------------|--3-----3--------------|--2--------------2-----|
--0-----------------------|-------------------------|-----------------------|-----------------------|


     II                                                                                          
                           ^                                                ^                    
  E  E  E  E  Q    Q       Q.     E  E  E  E  E     E  E  Q    Q    Q       E  E  Q    H         
-----5--3--2--3---------|--0---------------0--1--|-----------------------|-------------0--------|
--0---------------------|--3------1-----3--------|-----------------------|----------------------|
------------------------|------------3-----------|--3---------------2----|--1----------1--------|
--------2----------2----|------------------3-----|--0--3--L--------------|--2-----2-------------|
-----2-------------2----|--1---------------------|--1-----3----1---------|--2--2----------------|
--0---------------------|------------------------|-----------------------|--0-------------------|


                                                                        2._______________
  ^                       ^                                             ^                  
  E  E  E  E  H           E  E  E  E  H           W                     H.           Q     
-----------------------|-----------------------|--------------------||--------------------|
--3--------------------|--3--------------------|--3-----------------||--0-----------------|
--3--------------------|--2--------------------|--2----------------*||--0-----------------|
--5-----5-----0--------|--0-----0-----3--------|--0----------------*||--2-----------------|
-----5-----------------|-----0-----0-----------|--------------------||--2-----------------|
--3--------6-----------|-----------------------|--------------------||--0-----------------|


  Sacred,tempo:88                                                                                                    
  ^                                          ^                                           ^                  
  H        Q    Q       H        H           H        Q    Q       Q    Q    H           H.           Q     
---------------------|--------------------|---------------------|---------------------|--------------------|
---------------------|--0-----------------|--0------------------|---------------------|--------------------|
----------------0----|-----------2--------|-----------2----0----|---------------------|--0-----------------|
--2--------4---------|--2-----------------|--2------------------|--4----0----2--------|--2------------4----|
--2------------------|--3-----------------|--4------------------|--0------------------|--3-----------------|
--0------------------|--0-----------------|--0------------------|--0------------------|--------------------|


                                              ^                   ^                     ^                    
  Q    Q    Q    Q       H.           Q       W                   H        Q    Q       Q    Q    Q    Q     
----------------------|--------------------|-------------------|---------------------|----------------------|
----------------------|--------------------|-------------------|---------------------|--3---------3----1----|
--0----2----0---------|--------------------|-------------------|--0-------------0----|-------2----0---------|
-----------------4----|--4-----------------|--4----------------|--2--------4---------|--0-------------------|
-------0--------------|---------------7----|--6----------------|--3------------------|--2-------------------|
----------------------|--7-----------------|--7----------------|---------------------|----------------------|


            ^             ^                     ^                     ^                                       
  Q    Q    Q    E  E     H        Q    Q       H        Q    Q       H        H           H        H         
------------0----------|---------------------|---------------------|--------------------|--------------------|
--0--------------3--1--|--0------------------|---------------------|-----------0--------|--------------------|
--0---------2----------|---------------------|--0------------------|--------------------|-----------2--------|
-------2---------------|--2--------2----4----|--2--------4----2----|--0-----------------|--1-----------------|
--3---------3----------|--2------------------|--3------------------|--2-----------------|--2-----------------|
-----------------------|--4------------------|--3------------------|--2-----------------|--2-----------------|


  ^                         ^                ^                     ^                     ^                  
  H.           Q       Q    Q    H           Q    H        Q       Q    H        Q       H        H         
---------------3----|---------------------|---------------------|----------------3----|--3-----------------|
--------------------|--0----3----1--------|-------0-------------|--0------------------|-----------1--------|
--0-----------------|-------0-------------|--0-------------0----|---------------------|--------------------|
--2-----------------|-------2-------------|--2------------------|--4------------------|--2-----------------|
--2-----------------|---------------------|---------------------|-------3-------------|--------------------|
--0-----------------|--0------------------|--0------------------|--0------------------|--0-----------------|


                                                                         Da Capo
  ^                                                                                
  Q    Q    H           W                   W                                      
---------------------|-------------------|-------------------|-------------------||
------------0--------|-------------------|-------------------|-------------------||
--L----2----0--------|-------------------|-------------------|-------------------||
--2---------2--------|-------------------|-------------------|-------------------||
---------------------|-------------------|-------------------|-------------------||
--0------------------|--0----------------|--L----------------|-------------------||

Legend
---------------
W - whole
H - half
Q - quarter
E - 8th
S - 16th
. - note dotted
|-n-|  - n-tuplets
L - tied note
h - hammer on
p - pull off
^ - brush up
v - brush down
        
Comments

No comments yet