Gametabs
Home
Tabs
Random

Lament of the Highborne

Average rating: 5.000

3 ratings

Composer:

Tabber:

Style:

Instrument:

Created: February 18, 2011 at 12:00 AM

            Lament of the Highborne                                           
~World of Warcraft~

Composed by: Russell Brower & Derek Duke
Arranged by: kenor

Rhytm: 4/4 metrum
BPM = 86


Voice
-----

                     Q    E  E  Q    Q       E  E  E  E  Q    Q     
E||-------|-------|-------2--4--5----4----|--L-----2--4--5----4----|
B||-------|-------|-----------------------|------------------------|
G||-------|-------|-----------------------|------------------------|
D||-------|-------|-----------------------|------------------------|
A||-------|-------|-----------------------|------------------------|
E||-------|-------|-----------------------|------------------------|


  E  E  E  E  Q    Q       W                   Q    H.              Q    E  E  Q    Q     
--L-----2--4--5----4----|--8----------------|--L-----------------|-------2--4--5----4----|
------------------------|-------------------|--------------------|-----------------------|
------------------------|-------------------|--------------------|-----------------------|
------------------------|-------------------|--------------------|-----------------------|
------------------------|-------------------|--------------------|-----------------------|
------------------------|-------------------|--------------------|-----------------------|


  H.           Q       H.           Q       W                   H.           E  E   
---------------1----|--2------------4----|--6----------------|--L---------------1--|
--4-----------------|--------------------|-------------------|---------------4-----|
--------------------|--------------------|-------------------|---------------------|
--------------------|--------------------|-------------------|---------------------|
--------------------|--------------------|-------------------|---------------------|
--------------------|--------------------|-------------------|---------------------|


  Q    Q    Q    E  E     E  E  H        E  E     W                   H.           E  E   
--2----1------------1--|--2-----4--------1--2--|-------------------|---------------1--2--|
-----------------4-----|-----4-----------------|--4----------------|---------------------|
-----------------------|-----------------------|-------------------|---------------------|
-----------------------|-----------------------|-------------------|---------------------|
-----------------------|-----------------------|-------------------|---------------------|
-----------------------|-----------------------|-------------------|---------------------|


  H         Q    Q       H.           E  E     E  Q    E  H         
----------------------|---------------1--2--|--4--6----7--L--------|
--4---------L---------|---------------------|----------------------|
----------------------|---------------------|----------------------|
----------------------|---------------------|----------------------|
----------------------|---------------------|----------------------|
----------------------|---------------------|----------------------|


   H.            Q        W                   Q    H         E   E   
---L------------12----|--11----------------|--L---------------------|
----------------------|--------------------|------------------------|
----------------------|--------------------|----------------10--11--|
----------------------|--------------------|------------------------|
----------------------|--------------------|------------------------|
----------------------|--------------------|------------------------|


  E   Q     E  H            H.           Q       W                 
------------------------|----------------9----|--9----------------|
--9--11----12--L--------|---L-----------------|-------------------|
------------------------|---------------------|-------------------|
------------------------|---------------------|-------------------|
------------------------|---------------------|-------------------|
------------------------|---------------------|-------------------|


   H.            E  E     W                    H.           E  E     W                 
---L----------------7--|--9----------------|---L---------------4--|-------------------|
----------------10-----|-------------------|----------------7-----|--4----------------|
-----------------------|-------------------|----------------------|-------------------|
-----------------------|-------------------|----------------------|-------------------|
-----------------------|-------------------|----------------------|-------------------|
-----------------------|-------------------|----------------------|-------------------|


   W                   H        H           H        H           E  E  E  E  Q.     E   
--------------------|--2--------1--------|--2-----------------|-----1--2--1--L------L--|
---L----------------|--------------------|-----------4--------|--4---------------------|
--------------------|--------------------|--------------------|------------------------|
--------------------|--------------------|--------------------|------------------------|
--------------------|--------------------|--------------------|------------------------|
--------------------|--------------------|--------------------|------------------------|


-----------|-----------|-----------|-----------|-----------|-----------|-----------|
-----------|-----------|-----------|-----------|-----------|-----------|-----------|
-----------|-----------|-----------|-----------|-----------|-----------|-----------|
-----------|-----------|-----------|-----------|-----------|-----------|-----------|
-----------|-----------|-----------|-----------|-----------|-----------|-----------|
-----------|-----------|-----------|-----------|-----------|-----------|-----------|


                                      H.           E  E     E  Q    E  H         
-----------|-----------|-----------|---------------1--2--|--4--6----7--L--------|
-----------|-----------|-----------|---------------------|----------------------|
-----------|-----------|-----------|---------------------|----------------------|
-----------|-----------|-----------|---------------------|----------------------|
-----------|-----------|-----------|---------------------|----------------------|
-----------|-----------|-----------|---------------------|----------------------|


   H.           Q       W                    H.            E  E     W                 
---L------------9----|--9----------------|---L----------------7--|--9----------------|
---------------------|-------------------|----------------10-----|-------------------|
---------------------|-------------------|-----------------------|-------------------|
---------------------|-------------------|-----------------------|-------------------|
---------------------|-------------------|-----------------------|-------------------|
---------------------|-------------------|-----------------------|-------------------|


   H.           E  E     W                    W                   H        H         
---L---------------4--|-------------------|--------------------|--2--------1--------|
----------------7-----|--4----------------|---L----------------|--------------------|
----------------------|-------------------|--------------------|--------------------|
----------------------|-------------------|--------------------|--------------------|
----------------------|-------------------|--------------------|--------------------|
----------------------|-------------------|--------------------|--------------------|


  H        H           E  E  E  E  Q.     E                 E  E  E  E  H         
--2-----------------|-----1--2--1--L------L--|-----------|-----------------------|
-----------4--------|--4---------------------|-----------|--4--6--7--6--L--------|
--------------------|------------------------|-----------|-----------------------|
--------------------|------------------------|-----------|-----------------------|
--------------------|------------------------|-----------|-----------------------|
--------------------|------------------------|-----------|-----------------------|


  H        H          
--------------------||
--L-----------------||
--------------------||
--------------------||
--------------------||
--------------------||



Guitar (Capo 2)
---------------



     E  Q    E  E  Q    E     E  Q    E  E  Q    E     E  Q    E  E  Q    E   
E||------------------------|------------------------|------------------------|
B||-----5----5-----5----5--|-----5----5-----5----5--|-----5----5-----5----5--|
G||-----3----3-----3----3--|-----3----3-----3----3--|-----3----3-----3----3--|
D||--4----------5----------|--4----------5----------|--4----------5----------|
A||------------------------|------------------------|------------------------|
E||--0----------0----------|--0----------0----------|--0----------0----------|


                                 >     >     >              >     >     >      
  E  Q    E  E  Q    E     E  E  E  E  E  E  E  E     E  E  E  E  E  E  E  E   
------------------------|--------0-----2-----3-----|--------0-----2-----3-----|
-----5----5-----5----5--|-----5--------------------|-----5--------------------|
-----3----3-----3----3--|-----3-----------------3--|-----3-----------------3--|
--4----------5----------|--5--------5-----5--------|--5--------5-----5--------|
------------------------|--------------------------|--------------------------|
--0----------0----------|--0-----------0-----------|--0-----------0-----------|


  >     >     >     >        >     >     >     >        >     >     >     >      
  E  E  E  E  E  E  E  E     E  E  E  E  E  E  E  E     E  E  E  E  E  E  E  E   
--6-----------9-----------|--7-----------------------|--4-----------------------|
--------5-----7-----8-----|--------5-----7-----8-----|--5-----7-----5-----4-----|
-----3-----3-----0-----6--|-----------------------6--|--------------4-----------|
--------------------------|-----5-----5-----8--------|-----6-----6-----6-----6--|
--------------------------|--------------------------|--4-----------4-----------|
--0-----------0-----------|--0-----------0-----------|--------------------------|


  >     >     >     >              >     >                    >     >            
  E  E  E  E  E  E  E  E     E  E  E  E  E  E  E  E     E  E  E  E  E  E  E  E   
--4-----------------------|--------0-----2-----0-----|--------0-----2-----3-----|
--5-----7-----5-----4-----|--------------------------|--------------------------|
--------------4-----------|--1-----3-----3-----3-----|--------3-----3-----3-----|
-----6-----6-----6-----6--|-----2-----2-----2-----2--|-----2-----2-----2-----2--|
--4-----------4-----------|--------------------------|--------------------------|
--------------------------|--0-----------0-----------|--0-----------0-----------|


  >           >              ^                               ^               
  E  E  E  E  E  E  E  E     E  E  E  E  E  E  Q       Q     H        E  E   
--4-----------6-----------|--7----------------------|--2S----4--------L-----|
--5-----7-----5-----4-----|--5-----5-----5-----4----|--2S----4--------L--5--|
--------------------------|--4-----------4----------|-----------------------|
-----6-----6-----6-----6--|-----6-----6-----6-------|-----------------------|
--4-----------4-----------|--4-----------4----------|--------4--------L-----|
--------------------------|-------------------------|-----------------------|


  >     ^                                                         
  E  E  H.              E  E  H.              E  E  H.            
--------4------------|--------4------------|--------4------------|
--7-----4------------|--4-----5------------|--4-----5------------|
---------------------|-----6---------------|-----6---------------|
-----6---------------|---------------------|---------------------|
--4------------------|--4------------------|--4------------------|
---------------------|---------------------|---------------------|


                                                       ^                        
  E  E  E  E  E  E  E  E     E  E  E  E  E  E  Q       E  E  E  E  E  E  E  E   
--------------------0-----|-------------------------|--0-----------------0-----|
--------------------------|-------------------------|--9-----9--------------9--|
--------4-----5-----------|--------5-----------5----|--8--8-----8-----8--------|
-----4-----4-----4-----4--|-----5-----5-----4-------|--------------------------|
--------------------------|-------------------------|--------------------------|
--5-----------5-----------|--5-----------5----------|--9-----------9-----------|


  E  E  E  E  H           E  E  E  E  E  E  E  E     E  E  E  E  E  E  Q     
--------0--------------|--------------------0-----|-------------------------|
-----------------------|--------------------------|-------------------------|
-----8-----8-----------|--------4-----5-----------|--------5-----------5----|
-----------------------|-----4-----4-----4-----4--|-----5-----5-----4-------|
-----------------------|--------------------------|-------------------------|
--9-----------9--------|--5-----------5-----------|--5-----------5----------|


  ^                          ^                          ^                        
  E  E  E  E  E  E  E  E     E  E  E  E  E  E  E  E     E  E  E  E  E  E  E  E   
--2-----2-----2-----2-----|--3-----3-----3-----3-----|--2-----2-----2-----2-----|
--5-----5-----5-----5-----|--5-----5-----5-----5-----|--5-----5-----5-----5-----|
--4--4-----4-----4-----4--|--4--4-----4-----4-----4--|--4--4-----4-----4-----4--|
--------------------------|--------------------------|--------------------------|
--2-----------------------|--2-----------------------|--2-----------------------|
--------------------------|--------------------------|--------------------------|


  ^                                                                           
  E  E  E  E  H           E  E  E  E  E  E  E  E     E  E  E  E  E  E  E  E   
--3-----3-----3--------|--------------------------|--------------------------|
--5-----5-----5--------|--5-----------5-----------|--4-----------4-----------|
--4--4-----4-----------|--6-----6-----6-----6-----|--6-----6-----6-----6-----|
-----------------------|-----6-----6-----6-----6--|-----6-----6-----6-----6--|
--2--------------------|--4-----------------------|--4-----------------------|
-----------------------|--------------------------|--------------------------|


                                                              >     >            
  E  E  E  E  E  E  E  E     E  E  E  E  E  E  E  E     E  E  E  E  E  E  E  E   
--------------------------|--------0-----------4-----|--------0-----2-----3-----|
--------5-----------------|--------------------------|--------------2-----2-----|
--------------------4-----|-----3-----3-----4-----4--|--1-----3--------3-----3--|
-----6-----6-----6-----6--|--------------------------|-----2-----2--------------|
--4-----------4-----------|--4-----------4-----------|--------------------------|
--------------------------|--------------------------|--0-----------0-----------|


        >     >              >           >              ^                    >   
  E  E  E  E  E  E  E  E     E  E  E  E  E  E  E  E     E  E  E  E  E  E  E  E   
--------0-----2-----3-----|--4-----------6-----------|--7-----------------------|
--------------2-----2-----|--5-----7-----5-----4-----|--5-----5-----5-----4--5--|
--------3--------3-----3--|--------------------------|--4-----------4-----------|
-----2-----2--------------|-----6-----6-----6-----6--|-----6-----6-----6--------|
--------------------------|--4-----------4-----------|--4-----------4-----------|
--0-----------0-----------|--------------------------|--------------------------|


  >     ^           >     >     ^                                                         
  E  E  H        E  E     E  E  H.              E  E  H.              E  E  H.            
--------4--------L-----|--------4------------|--------4------------|--------4------------|
--7-----4--------L--5--|--7-----4------------|--4-----5------------|--4-----5------------|
-----------------------|---------------------|-----6---------------|-----6---------------|
-----6-----------------|-----6---------------|---------------------|---------------------|
--4--------------------|--4------------------|--4------------------|--4------------------|
-----------------------|---------------------|---------------------|---------------------|


  ^           ^     >        ^                         ^                        
  E  E  E  E  E  E  E  E     E  E  E  E  E  E  Q       E  E  E  E  E  E  E  E   
--5-----------5-----5-----|--3----------------------|--9-----0-----------0-----|
--5-----0-----0-----------|--5-----0----------------|--9-----------9-----------|
--5--5-----5--------5-----|--5--------5--------5----|--8--8-----8-----8-----8--|
-----------------4-----4--|-----4-----------4-------|--------------------------|
--0-----------0-----------|--0-----------0----------|--------------------------|
--------------------------|-------------------------|--9-----------9-----------|


  E  E  E  E  H           E  E  E  E  E  E  E  E     E  E  E  E  E  E  Q     
--------0--------------|--------------------0-----|-------------------------|
-----------------------|--------------------------|-------------------------|
-----8-----8-----------|--------4-----5-----------|--------5-----------5----|
-----------------------|-----4-----4-----4-----4--|-----5-----5-----4-------|
-----------------------|--------------------------|-------------------------|
--9-----------9--------|--5-----------5-----------|--5-----------5----------|


  ^                          ^                          ^                        
  E  E  E  E  E  E  E  E     E  E  E  E  E  E  E  E     E  E  E  E  E  E  E  E   
--2-----2-----2-----2-----|--3-----3-----3-----3-----|--2-----2-----2-----2-----|
--5-----5-----5-----5-----|--5-----5-----5-----5-----|--5-----5-----5-----5-----|
--4--4-----4-----4-----4--|--4--4-----4-----4-----4--|--4--4-----4-----4-----4--|
--------------------------|--------------------------|--------------------------|
--2-----------------------|--2-----------------------|--2-----------------------|
--------------------------|--------------------------|--------------------------|


  ^                                                                           
  E  E  E  E  H           E  E  E  E  E  E  E  E     E  E  E  E  E  E  E  E   
--3-----3-----3--------|--------------------------|--------------------------|
--5-----5-----5--------|--5-----------5-----------|--4-----------4-----------|
--4--4-----4-----------|--6-----6-----6-----6-----|--6-----6-----6-----6-----|
-----------------------|-----6-----6-----6-----6--|-----6-----6-----6-----6--|
--2--------------------|--4-----------------------|--4-----------------------|
-----------------------|--------------------------|--------------------------|


  E  E  E  E  E  E  E  E     E  E  E  E  E  E  E  E     E  E  E  E  E  E  E  E   
--------------------------|--------0-----------4-----|--------0-----------0-----|
--------5-----------------|--------------------------|-----------------------2--|
--------------------4-----|-----3-----3-----4-----4--|-----3-----3-----3--------|
-----6-----6-----6-----6--|--------------------------|--------------------------|
--4-----------4-----------|--4-----------4-----------|--4-----------4-----------|
--------------------------|--------------------------|--------------------------|


  E  E  E  E  E  E  E  E     E  E  E  E  E  E  E  E     W                  
--------0-----------0-----|--------0-----------0-----|-------------------||
-----------4--------------|-----------2-----------4--|-------------------||
-----3-----------3-----3--|-----3-----------3--------|-------------------||
--------------------------|--------------------------|-------------------||
--4-----------4-----------|--4-----------4-----------|--4----------------||
--------------------------|--------------------------|-------------------||


Legend:
-------

W - whole
H - half
Q - quarter
E - 8th
. - note dotted
L - tied note
> - accentuded note
S - slide
^ - brush up
        
Comments

@demigorgon (February 18, 2011 at 9:35 PM)

good LAWD thats hot!


@natenmn (February 18, 2011 at 10:27 PM)

I really like this, Kenor! good job!


@diralark (February 19, 2011 at 1:08 PM)

Wow :) That's great ! I like this tune since a long time. Thanks because u like tab the wow tunes & if I can suggest, I think this Cataclysm track can be tabed & also I really like it : http://www.youtube.com/watch?v=JY5vgxeh5NY especially after 3'10" when the melody become pure.


@diralark (February 21, 2011 at 7:54 PM)

ah ok indeed it's a very hard job it s why I thought to you :) Also I'm trying to merge yr two tracks from "Lament of the Highborne (World of Warcraft) Guitar Tab" to a solo guitar tab , & this work is not a piece of cake, I hope I ll can obtain a playable stuff soon, probably detuning some chords, so I ll send u the result, maybe it can interest u