Gametabs
Home
Tabs
Random

Times Change

Average rating: No ratings

Composer:

Tabber:

Style:

Instrument:

Created: February 21, 2017 at 12:00 AM

                                  Grommash Hellscream - Times change                        


Piste 1
     ^     ^    ^     ^       ^     ^    ^     ^       ^     ^    ^     ^     
     Q     Q    Q     Q       Q     Q    Q     Q       Q     Q    Q     Q     
D||------------------------|------------------------|------------------------|
A||------------------------|------------------------|------------------------|
F||------------------------|------------------------|------------------------|
C||--2p----0----2p----0----|--2p----0----3p----2----|--2p----0----2p----0----|
G||--0----------0----------|--0----------0----------|--0----------0----------|
D||------------------------|------------------------|------------------------|


  ^     ^    ^     ^                 ^              ^                     
  Q     Q    Q     Q       H         Q     Q        H         Q     Q     
------------------------|-----------12----10----|--12---------8----------|
------------------------|-----------10----10----|------------10----12----|
------------------------|------------9----------|--10--------10----------|
--2p----0----3p----2----|-----------------------|------------------------|
--0----------0----------|--0--------------------|---8---------8----------|
------------------------|-----------------------|------------------------|


   ^         ^     ^        ^                        ^         ^           
   H         Q     Q        H         Q     Q        H         Q     Q     
------------13----12----|--13--------12----10----|------------12----10----|
--10--------10----------|------------------------|--10--------10----10----|
--10--------10----------|--10--------------------|---9---------9----------|
---0--------------------|------------------------|------------------------|
------------------------|---8---------L-----L----|---0--------------------|
------------------------|------------------------|------------------------|


   ^                        ^         ^     ^        ^                     
   H         Q     Q        H         Q     Q        H         Q     Q     
--12---------8----------|------------13----12----|--13--------12----10----|
------------10----12----|--10--------10----------|------------------------|
--10--------10----------|--10--------10----------|--10--------------------|
------------------------|---0--------------------|------------------------|
---8---------8----------|------------------------|---8---------L-----L----|
------------------------|------------------------|------------------------|


            ^           ^        ^                     ^         
   H        H           H        Q    Q       H        H         
------------5--------|---------------------|-----------5--------|
--10--------5--------|---------------------|-----------5--------|
---9--------5--------|--7--------5----4----|--2--------5--------|
------------7--------|--7--------6---------|--2--------2--------|
---0--------7--------|--5--------6---------|--0--------0--------|
------------5--------|-----------4----L----|--------------------|


  ^        ^                                        
  H        Q    Q       E  E  E  E  E  E  S  S  E   
---------------------|-----------------------------|
--3------------------|--------0-----1-----3p-1p-0--|
--2--------5----4----|--2--------------------------|
--0------------------|--2--------------------------|
---------------------|--0--0-----0-----0-----------|
-----------4----L----|-----------------------------|


  E  E  E  E  E  E  S  S  E     E  E  E  E  E  E  S  S  E   
-----------------------------|-----------------------------|
--------0-----1-----3p-1p-0--|--------0-----1-----3p-1p-0--|
--2--------------------------|--2--------------------------|
--3--------------------------|--2--------------------------|
-----------------------------|--0--0-----0-----0-----------|
--1--1-----1-----1-----------|-----------------------------|


  E  E  E  E  E  E  S  S  E     E  E  E  E  E  E  E  E   
-----------------------------|--------------0-----------|
--------0-----1-----3p-1p-0--|--------------------3-----|
--2--------------------------|--2-----2--------2-----2--|
--3--------------------------|-----2-----2--------------|
-----------------------------|--0-----------------------|
--1--1-----1-----1-----------|--------------------------|


  E  E  E  E  E  E  E  E     E  E  E  E  E  E  E  E   
--0-----------------------|--------------1-----0-----|
--------------1-----0-----|--------3-----------------|
-----------2--------------|--2--2-----2-----2-----2--|
--------3--------3-----3--|--0-----------0-----------|
-----3--------------------|--------------------------|
--1-----------1-----------|--------------------------|


  E  E  E  E  E  E  E  E     E  E  E  E  E  E  E  E   
--1-----------0-----------|--------------0-----------|
--------------------3-----|--------------------3-----|
-----------2--------------|--2-----2--------2-----2--|
--------3--------3-----3--|-----2-----2--------------|
-----3--------------------|--0-----------------------|
--1-----------------------|--------------------------|


  E  E  E  E  E  E  E  E     E  E  E  E  E  E  E  E   
--0-----------------------|--------------1-----0-----|
--------------1-----0-----|--------3-----------------|
-----------2--------------|--2--2-----2-----2-----2--|
--------3--------3-----3--|--0-----------0-----------|
-----3--------------------|--------------------------|
--1-----------1-----------|--------------------------|


                                      ^           ^        ^          
  E  E  E  E  E  E  E  E     H        H           H        Q    Q     
--1-----------0-----------|-----------5--------|---------------------|
--------------------3-----|-----------5--------|--3------------------|
-----------2--------------|--2--------5--------|--2--------5----4----|
--------3--------3-----3--|--2--------2--------|--0------------------|
-----3--------------------|--0--------0--------|---------------------|
--1-----------------------|--------------------|-----------4----L----|


           ^           ^        ^            ^                   
  H        H           H        Q    Q       H        Q    Q     
-----------5--------|---------------------|-----------0---------|
-----------5--------|--3------------------|----------------3----|
--2--------5--------|--2--------5----4----|--2------------------|
--2--------2--------|--0------------------|--2------------------|
--0--------0--------|---------------------|--0------------------|
--------------------|-----------4----L----|---------------------|


           WE WILL NEVER BE SLAVES !!!!!!                             
  ^                                               ^        ^          
  H        Q                              Q       H        Q    Q     
-----------------------------------------------|-----------1----0----|
-----------1------------------------------0----|-----------3---------|
-----------------------------------------------|--2--------2---------|
--3--------------------------------------------|--0------------------|
--3--------------------------------------------|---------------------|
--1--------------------------------------------|---------------------|


  ^                     ^                                         
  H        Q    Q       H        Q    Q       H        Q    Q     
--1--------0---------|---------------------|---------------------|
----------------3----|---------------------|---------------------|
---------------------|--2------------------|---------------------|
--3------------------|--2--------2----0----|---------------------|
--3------------------|--0------------------|-----------3----2----|
--1------------------|---------------------|--1------------------|


  H        Q    Q       H        Q    Q       W                  
---------------------|---------------------|-------------------||
---------------------|---------------------|-------------------||
---------------------|---------------------|--2----------------||
-----------3----2----|--3--------2----0----|--2----------------||
--0------------------|---------------------|--0----------------||
---------------------|---------------------|-------------------||
        
Comments

No comments yet