Gametabs
Home
Tabs
Random

Side-Crawler's Dance

Average rating: 5.000

2 ratings

Composer:

Tabber:

Style:

Instrument:

Created: September 11, 2021 at 12:00 AM

            Side-Crawler's Dance                               
Wonder Boy III: The Dragon's Trap
Composed by Shinichi Sakamoto
Arranged by William Geesdorf


Playing instructions: Play to the end of the measure marked D.S. al Coda. 
Go back to the measure marked "Segno" and play down to the end of the measure marked Da
Coda, then skip to the section marked "Coda" and play to the end.


             "Segno"
     E  E       E  E  E  Q    E  E  E     S  S  E  E  Q    E  E  E   
E||--------||--------------------0-----|----------------------------|
B||-----0--||---2--------0-------------|--0h-2p-0-------------------|
G||--2-----||*--------2----------------|--------------1-------2--1--|
D||--------||*-----2----------2-----2--|-----------2-------2--------|
A||--------||---0----------------------|----------------------------|
E||--------||--------------------------|--0-------------------------|


  E  E  E  E  E  E  E  E     E  E  E  E  E  Q    E     
--------------------------|--------------------------||
-----------------------0--|--3-----2-----0-------0---||
-----------------1--2-----|-----2-----2-----2-------*||
--4-----4--2--4-----------|--0----------------------*||
-----4--------------------|--------------------------||
--2-----------------------|--------------0-----------||


  E  E  E  Q    E  E  E     E  E  E  Q    E  E  E     E  E  E  Q    E  E  E   
--0--------0-------------|--0--------0-------------|--0--------0-------------|
--------2-------3--2--3--|--------0-------3--2--3--|--------0-------3--2--0--|
-----2-------------------|-----4-------------------|-----0-------------------|
-------------------------|-------------------------|-------------------------|
--0----------------------|-------------------------|-------------------------|
-------------------------|--4----------------------|--3----------------------|

                                                                  Da Coda
  E.  S H.              Q    E  E  E  E  E  E     E  E  E  E  Q    E  E   
---------------------|-------------------------|--0----------------------|
--0---2--------------|----------------0--2--3--|-----------0--0----2--0--|
--------2------------|-------------2-----------|--------1----------------|
---------------------|--3-------3--------------|-----2-------------------|
---------------------|-------3-----------------|-------------------------|
--2------------------|--1----------------------|--0----------------------|


  E  E  E  E  E  E  E  E     E  E  E  E  Q    E  E   
--------------------0--2--|--0----------------------|
-----------0--2--3--------|--------3-----2-------0--|
--2--1--2-----------------|-------------------2-----|
--0-----------------------|-----2-----2-------------|
--------------------------|-------------------------|
--------------------------|--0----------------------|


    E  E  E  Q    E  E  E     S  S  E  E  Q    E  E  E   
|--------------------0-----|----------------------------|
|---2--------0-------------|--0h-2p-0-------------------|
|*--------2----------------|--------------1-------2--1--|
|*-----2----------2-----2--|-----------2-------2--------|
|---0----------------------|----------------------------|
|--------------------------|--0-------------------------|

                            1st Ending                  2nd Ending
  E  E  E  E  E  E  E  E     E  E  E  E  E  Q    E       E  E  Q    E  E  Q     
--------------------------|--------------------------||------------------------|
-----------------------0--|--3-----2-----0-------0---||--3-----2---------------|
-----------------1--2-----|-----2-----2-----2-------*||-----2-------2----------|
--4-----4--2--4-----------|--0----------------------*||--0----------------3----|
-----4--------------------|--------------------------||----------------3-------|
--2-----------------------|--------------0-----------||-------------1----------|


  Q.     E  E  E  Q       Q.     E  E  E  E  E     Q.      E   Q    E  E   
------------------0----|------------2--0--------|-------------------------|
------------1--3-------|------------------3--1--|--3----------------3--0--|
--0------0-------------|--2------2--------------|--4------(4)--2----------|
--2--------------------|--0---------------------|-------------------------|
--3--------------------|------------------------|--2----------------------|
-----------------------|------------------------|-------------------------|


  Q    Q    E  E  E  E     E  Q    E  E  Q    E     Q    Q    Q    E  S  S  
------------------------|------------------------|-------------------------|
------------------------|----------------0----1--|--3----1----0------------|
--0---------0-----------|----------0--2----------|--2--------------2--0h-2-|
--2------------4--2--0--|--2--4------------------|--0----------------------|
------------------2-----|--3---------------------|-------------------------|
--0----2----3-----------|------------------------|-------------------------|

                                    D.S. al Coda  "Coda"
  Q.     E  Q    E  E     Q    Q    E  E  E  E       E  E  E  E  E  E  E  E   
-----------------------|------------------------||---------------------0--2--|
--0--------------0-----|---------------------0--||------------0--2--3--------|
------------2-------2--|--1------------1--2-----||*--2--1--2-----------------|
---------2-------------|--2---------------------||*--0-----------------------|
-----------------------|------------------------||---------------------------|
--0--------------------|--0----2----4-----------||---------------------------|


                            ^                                      
  E  E  E  E  Q    E  E     W                   W                  
--0----------------------|--0----------------|--L----------------||
--------3-----2-------0--|--2----------------|--L----------------||
-------------------2-----|--2----------------|--L----------------||
-----2-----2-------------|--2----------------|--L----------------||
-------------------------|--0----------------|--L----------------||
--0----------------------|-------------------|-------------------||




Duration Legend
---------------
W - whole
H - half
Q - quarter
E - 8th
S - 16th
T - 32nd
X - 64th
. - note dotted
|-n-|  - n-tuplets


Tablature Legend
----------------
L - tied note
(n) - ghost note
h - hammer on
p - pull off
^ - brush up
        
Comments

No comments yet