Gametabs
Home
Tabs
Random

Alsedo, Fairy Village

Average rating: No ratings

Composer:

Tabber:

Style:

Instrument:

Created: June 08, 2008 at 12:00 AM

            Wonderboy in Monster World - Alsedo, Fairy Village

4/4 Timing, Standard Tuning

LEAD GUITAR

E-------------------------------------------------------------------------------------------
B---------------------6---5---5-------------------------------------------------------------
G-----5---5-5-7---5-7-------7---5-----------------------------------------------------------
D-5-5-----------------------------8----7-6-5------------------------------------------------
A-------------------------------------------------------------------------------------------
E-------------------------------------------------------------------------------------------

E-------------------------------------------------------------------------------------------
B-------------6---5---8-5-------------------------------------------------------------------
G-----7---7-7-------7-----7-5--------7-5----------------------------------------------------
D-5-5-------------------------8----5-------8-7-6-5------------------------------------------
A--------------------------------------------------9-8-8-----8-6-5--------------------------
E----------------------------------------------------------8-------9-8----------------------

E------------------------5-6-7-8------------------------------------------------------------
B------------------7-8-9----------------6---------------------------------------------------
G--------------5-------------------6------8-6-5---10--9--8--7-------------------------------
D--------7-8-9------------------------6---------8-------------------------------------------
A-8-9-10------------------------------------------------------------------------------------
E-------------------------------------------------------------------------------------------

Composer: Shinichi Sakamoto
Tabbed by: Shaun Lovibond
This melody plays when in Alsedo, the Fairy Village, early on in Shion's adventure (Multiple Platforms, 1991)
        
Comments

No comments yet