Gametabs
Home
Tabs
Random

Town Theme

Average rating: 5.000

4 ratings

Composer:

Tabber:

Style:

Instrument:

Created: December 15, 2012 at 12:00 AM

            Game: Wild ARMS
Song: Town Theme                                    
Composed by Michiko Naruke

Transcribed by Jack the Cow
15/12/2012

Capo 7

     S  S E  E  E  S  S E  E  E     S  S E  E  E  E  E  E  E   
E||------------------------------|--0-------------------------|
B||----------1-----0-------1--3--|-------1--------3--0--------|
G||--2------------------0--------|----------2-----------0-----|
D||--0h-2----2-------------------|--0h-2-------2--0--------3--|
A||-------0-----0--3h-5----------|----------0-----------------|
E||------------------------3-----|----------------------3-----|


  S  S E  E  E  S  S E  E  E     S  S E  E  E  E  E  E  E   
---------------------------2--|----------------------------|
-------1-----1-------3-----3--|-------0-----0-----0--3--1--|
-------0-----0-------2--------|-------1-----1-----1--------|
--0h-2------------------------|--0h-2-------0--2-----------|
----------------3h-5----0-----|----------2-----------2-----|
----------3-------------------|----------------------------|


  S  S E  E  E  E  E  E  E     S  S E  E  E  E  E  E  E   
----------------------------|----------------------------|
--0-------1--0--------------|----------------------1--0--|
-------2--------2--0--------|----------0--2--------------|
--0h-2----------------2-----|--0-------------2-----2-----|
----------0-----0-----0--3--|--0h-2----2-----2-----------|
----------------------------|-------0-----------0--------|


  S  S E  E  E  E  E  E  E     S  S E  E  E  S  S E  E  E   
----------------------------|------------------------------|
----------------------------|---------------------------0--|
--2-------2--0--------------|--2-------2-----0----------0--|
--0h-2----2-----2-----0--2--|--2h-3----3-------------0-----|
-------0--------2-----2-----|-------3-----3--3h-5----------|
-------------------0--------|---------------------3--------|
  ^                                                                             
  H.           E  E     S  S E  E  E  E  E  E  E     S  S E  E  E  E  E  E  E   
--3------------------|----------0-----------------|----------------------------|
--0------------------|----------------3-----1--0--|----------------------1--0--|
--0------------------|--2----------------0--------|--2-------2--0--------------|
--0------------------|--0h-2----2-----0-----------|--0h-2----2-----2-----2-----|
--2------------0--2--|-------0-----0--------------|-------0--------2-----------|
--3------------------|----------------------3-----|-------------------0--------|


  S  S E  E  E  E  E  E  E     S  S E  E  E  S  S E  E  E   
----------------------------|------------------------------|
----------------------------|------------------------------|
--2-------2--0--------------|--2-------2-----0-------0-----|
--0h-2----2-----2-----0--2--|--2h-3----3-------------0--2--|
-------0--------2-----2-----|-------3-----3--3h-5----------|
-------------------0--------|---------------------3--------|


  S  S E  E  E  E  E  E  E     S  S E  E  E  E  E  E  E   
----------0-----------3-----|----------------------------|
----------------3--------3--|--1-------0-----------1--0--|
--2----------------0--------|-------2-----2--0-----------|
--0h-2----2-----0-----------|--0h-2----------------2-----|
-------0-----0--------------|----------0--------2--------|
----------------------3-----|----------------0-----------|


  S  S E  E  E  E  E  E  E     S  S E  E  E  S  S E  E  E   
----------------------------|------------------------------|
----------------------------|------------------------------|
--2-------2--0--------------|--2-------2-----0-------0-----|
--0h-2----2-----2-----0--2--|--2h-3----3-------------0-----|
-------0--------2-----2-----|-------3-----3--3h-5----------|
-------------------0--------|---------------------3-----3--|


  S  S E  E  E  S  S E  E  E     S  S E  E  E  S  S E  E  E   
------------------------------|------------------------------|
-------1----------------------|------------------------------|
--2------------------0-----0--|-------2-------------0-----0--|
--0h-2-------2----------------|--0h-2-------2----------------|
----------0-----3h-5----------|----------0-----3h-5----------|
------------------------3-----|------------------------3-----|


  S  S E  E  E  S  S E  E  E     S  S E  E  E  S  S E  E  E   
------------------------------|------------------------------|
------------------------------|------------------------------|
-------2-------------0-----0--|-------2-------------0-----0--|
--0h-2-------2----------------|--0h-2-------2----------------|
----------0-----3h-5----------|----------0-----3h-5----------|
------------------------3-----|------------------------3-----|


  ^                  
  W                  
-------------------||
--1----------------||
--2----------------||
--2----------------||
--0----------------||
-------------------||




Duration Legend
---------------
W - whole
H - half
Q - quarter
E - 8th
S - 16th
T - 32nd
X - 64th
. - note dotted
|-n-|  - n-tuplets


Tablature Legend
----------------
L - tied note
h - hammer on
p - pull off
^ - brush up
v - brush down

        
Comments

@CapoAndy (December 28, 2012 at 12:53 AM)

Been waiting for a long time to someone do these, Thank you sir!