Gametabs
Home
Tabs
Random

Resistance Line

Average rating: 5.000

1 ratings

Composer:

Tabber:

Style:

Instrument:

Created: October 02, 2007 at 12:00 AM

            Resistance Line
Wild Arms 2
Composed by Michiko Naruke

6/14/07

Intro
e--10-10-10-10-10-10-10--10-10-10-10-10-10-10-9h10-9h10b--
B---------------------------------------------------------
G---------------------------------------------------------
D---------------------------------------------------------
A---------------------------------------------------------
E---------------------------------------------------------

e--9-10-12-10-9-----------------------------------------
B---------------12-10-----------------------------------
G---------------------12-11-9---------------------------
D------------------------------12-11-12-11-12-11--------
A------------------------------------------------12s14--
E-------------------------------------------------------

Main Theme (In the MIDI file it's played an octave below the
            intro. You can do this if you want but then you get
            into the realm of super high frets.)

e--10-12-10-12--10--10-9-10-12--------
B------------------------------12-10--
G-------------------------------------
D-------------------------------------
A-------------------------------------
E-------------------------------------

e--10-12-14-14-12-10---12-9--------
B---------------------------12-10--
G----------------------------------
D----------------------------------
A----------------------------------
E----------------------------------

e--10-12-10-12--10--10-10-12---------
B----------------------------12--10--
G------------------------------------
D------------------------------------
A------------------------------------
E------------------------------------

e---------10--9--------9------------
B---------------12--10---12--10-12--
G--11-12----------------------------
D-----------------------------------
A-----------------------------------
E-----------------------------------

e--10-12-10-12--10--10-9-10-12--------
B------------------------------12-10--
G-------------------------------------
D-------------------------------------
A-------------------------------------
E-------------------------------------

e--10-12-14-14-12-10---12-9--------
B---------------------------12-10--
G----------------------------------
D----------------------------------
A----------------------------------
E----------------------------------

e--10-12-10-12--10--10-10-12---------
B----------------------------12--10--
G------------------------------------
D------------------------------------
A------------------------------------
E------------------------------------

e------10--9------------
B------------12--10-12--
G--12-------------------
D-----------------------
A-----------------------
E-----------------------

e---------------------9--10--12-10-12-14--
B--12-12-10-10-10--12---------------------
G-----------------------------------------
D-----------------------------------------
A-----------------------------------------
E-----------------------------------------

e--14-12-12-12-14-15--17--15-15-14--
B-----------------------------------
G-----------------------------------
D-----------------------------------
A-----------------------------------
E-----------------------------------

e--14-12-12-12-14-15--17-15-15-14-12-14--
B----------------------------------------
G----------------------------------------
D----------------------------------------
A----------------------------------------
E----------------------------------------

e------------------------------------------12--------12--
B--12-14-15p14h15p14h15---12-14-15-15-15--------15-------
G--------------------------------------------------------
D--------------------------------------------------------
A--------------------------------------------------------
E--------------------------------------------------------

e--14---------12--14-14-14----12-14-17--19-22-21--19-21-17--17--
B---------15----------------------------------------------------
G---------------------------------------------------------------
D---------------------------------------------------------------
A---------------------------------------------------------------
E---------------------------------------------------------------

e-----21-17--17------17-19-----------
B--19-------------19-------18-17-15--
G------------------------------------
D------------------------------------
A------------------------------------
E------------------------------------

e---------------------19---------14-12h14p12--
B------12-14--15--15-----17-------------------
G--14-----------------------------------------
D---------------------------------------------
A---------------------------------------------
E---------------------------------------------

e------12--14-14-14----12-14-17--19-22-21--19-21---17------17-19--
B--15--------------------------------------------------19---------
G-----------------------------------------------------------------
D-----------------------------------------------------------------
A-----------------------------------------------------------------
E-----------------------------------------------------------------

e--19--17----------------------------------------------
B----------19-17-19--15-----14-15-17--15-14-17-17--15--
G------------------------------------------------------
D------------------------------------------------------
A------------------------------------------------------
E------------------------------------------------------

e--19--17--14-----14-----------------14--17--21-21-19--
B-------------17------15-------17-17-------------------
G------------------------------------------------------
D------------------------------------------------------
A------------------------------------------------------
E------------------------------------------------------

        
Comments

@JX (September 22, 2007 at 4:37 PM)

dude this is perfect thanks a bunch man! you totally rock!!