Gametabs
Home
Tabs
Random

Opening Theme

Average rating: 4.600

5 ratings

Composer:

Tabber:

Style:

Instrument:

Created: October 06, 2008 at 12:00 AM

            Opening Theme
Wii Sports
Composed by Kazumi Totaka
Tabbed by hslesperance
10/5/08

Standard Tuning

e------------------2----9--7-----9--7------------------7--6-7------
B---0-2-5--4--2-0-------------7--------7--4----5----7----------7---
G------------------------------------------------------------------
D------------------------------------------------------------------
A------------------------------------------------------------------
E------------------------------------------------------------------

e------------------------------------------------7--9-7--9-11-12---
B---4--------4------------------4----5----4-5-7--------------------
G------4--6----6---------------------------------------------------
D------------------------------------------------------------------
A------------------------------------------------------------------
E------------------------------------------------------------------


e---11--9----------9-9--------9-11-12--11--9-----------------------
B---------12--7-9----------------------------12--------------------
G------------------------------------------------11----------------
D------------------------------------------------------------------
A------------------------------------------------------------------
E------------------------------------------------------------------

e---9-11-12--11--9-----11/14--------14-16-17--16--14---------------
B------------------12--------------------------------17------------
G------------------------------------------------------------------
D------------------------------------------------------------------
A------------------------------------------------------------------
E------------------------------------------------------------------

e---12/15--14------------------------------------------------------
B--------------17-15----15/18--17--15------------------------------
G-------------------------------------17--------------------17-17--
D-----------------------------------------17--14------15-----------
A-------------------------------------------------15---------------
E------------------------------------------------------------------

e------------------------------------------0-----0-7-5-------------
B-------------17-17----------------------2---2-3-------------------
G---14--16---------------------1-2-4-2-4---------------------------
D----------------------------4-------------------------------------
A------------------------------------------------------------------
E------------------------------------------------------------------

e---4-5-7----5-4-5--------5h7p5p4----1-2-4----------1-2---1--------
B-------------------------------------------------2-----------4----
G------------------------------------------------------------------
D------------------------------------------------------------------
A------------------------------------------------------------------
E------------------------------------------------------------------


e----------------------------1-2---1-----------1h2h4------2h4p2----
B---2h4p2------------------2-----------4---2-----------------------
G---------1--------------------------------------------------------
D------------------------------------------------------------------
A------------------------------------------------------------------
E------------------------------------------------------------------


e---3---2---0--------------------------------3---2---0-------------
B--------------3----------------------------------------3----------
G-------------------2----------------------------------------2-----
D------------------------------------------------------------------
A------------------------------------------------------------------
E------------------------------------------------------------------

/ - slide up
h - hammer on
p - pull off

        
Comments

@pedroul5679 (May 01, 2014 at 11:54 PM)

Nice, tahts really works