Gametabs
Home
Tabs
Random

Title Screen

Average rating: No ratings

Composer:

Tabber:

Style:

Instrument:

Created: February 11, 2011 at 12:00 AM

                          Wario's Woods (NES) - Title Screen BASS TAB
               Composed by Shinobu Amayake and Soyo Oka
         
                Tabbed by auriplane ([email protected])



This song is fairly fast, and I put in some open strings.  If you're
particularly good at muting, that's probably fine.  I use a trick to
make it a little easier: I put a scrunchie over the first fret, and
move it around a little bit until I get it just right to cut open
strings short without killing them entirely.  :-)

For the fourth measure of part B (on the five-string version), I play 
the first five notes with my ring and pinky over the seventh fret, 
then I shift ring and pinky down to the sixth fret together.

For the same part on the four-string version, I do middle and ring on
the seventh fret, and index on the sixth fret.


                          FOUR-STRING VERSION
        Part A

G |----------------|----------------|----------------|----------------|
D |--9---9---9---9-|--9---9---9---9-|--6---6---6---6-|--6---6---6---6-|
A |7-------7-------|6-------6-------|4-------4-------|2-------2-------|
E |----7-------7---|----7-------7---|----4-------4---|----4-------4---|

G |----------------|----------------|--4-------------|4---------------|
D |----------------|----------------|4---8-6-4---8---|----4-----------|
A |--7---7---7---7-|--7---7---7---7-|----------------|----------------|
E |5---0---5---0---|4---0---4---0---|----------------|--------7-------|

        Part B

G |----------------|----------------|----------------|----------------|
D |--9---9---9---9-|--9---9---9---9-|--6---6---6---6-|--7---7---6---6-|
A |7-------7-------|6-------6-------|4-------4-------|----------------|
E |----7-------7---|----7-------7---|----4-------4---|7---0---7---0---|
 
G |----------------|----------------|----------------|----------------|
D |----------------|----------------|--2---2---2---1-|----1---2-------|
A |--7---7---7---7-|--7---7---7---7-|--------2---2---|--2---2---------|
E |5---0---5---0---|4---0---4---0---|2---2-----------|0---------------|



                          FIVE-STRING VERSION
        Part A

G |----------------|----------------|----------------|----------------|
D |--9---9---9---9-|--9---9---9---9-|--6---6---6---6-|--6---6---6---6-|
A |7-------7-------|6-------6-------|4-------4-------|2-------2-------|
E |----7-------7---|----7-------7---|----4-------4---|----4-------4---|
B |----------------|----------------|----------------|----------------|

G |----------------|----------------|--4-------------|4---------------|
D |----------------|----------------|4---8-6-4---8---|----4-----------|
A |--7---7---7---7-|--7---7---7---7-|----------------|----------------|
E |5-------5-------|4-------4-------|----------------|--------7-------|
B |----5-------5---|----5-------5---|----------------|----------------|

        Part B

G |----------------|----------------|----------------|----------------|
D |--9---9---9---9-|--9---9---9---9-|--6---6---6---6-|--7---7---6---6-|
A |7-------7-------|6-------6-------|4-------4-------|----------------|
E |----7-------7---|----7-------7---|----4-------4---|7-------7-------|
B |----------------|----------------|----------------|----5-------5---|
 
G |----------------|----------------|----------------|----------------|
D |----------------|----------------|----------------|----------------|
A |--7---7---7---7-|--7---7---7---7-|--7---7---7---6-|----6---7-------|
E |5-------5-------|4-------4-------|----------------|--7---7---------|
B |----5-------5---|----5-------5---|7---7---0---0---|5---------------|



        
Comments

No comments yet