Gametabs
Home
Tabs
Random

Water Duct

Average rating: No ratings

Composer:

Tabber:

Style:

Instrument:

Created: March 10, 2011 at 12:00 AM

                           Wagan Paradise - Underwater Duct BASS TAB
              Composed by Yoshinori Kawamoto, Eriko Imura

                Tabbed by auriplane ([email protected])


Five-string bass, standard tuning.  Rest for four measures at the beginning.


G |----------------|----------------|----------------|----------------|
D |-------------252|----------------|----------------|----2-----------|
A |035-5-035-5-----|035-5-67--------|----3--5-3------|-35-------------| x2
E |----------------|---------70--030|535---5---5--034|5-----03-55--035|
B |----------------|----------------|----------------|----------------|


G |----------------|----5-----------|----------------|----5-----------|
D |-----765--------|-----567--------|-----765--------|-----567--------|
A |5---5-----------|3--------7-----3|5---5-----------|3--------7-----3| 
E |---------33--353|----------5--35-|---------33--353|----------5--35-|
B |----------------|----------------|----------------|----------------|


G |----------------|----------------|----------------|----------------|
D |-----765--------|----------------|----------------|----------------|
A |5---5-----------|---3------------|----------------|--------------57|
E |---------33--353|-13--31---1-----|--5-7----5-3----|------5-----57--|
B |----------------|1------------4--|35----35----3-4-|5--5------35----|



        
Comments

No comments yet