Gametabs
Home
Tabs
Random

Lighty's Theme

Average rating: No ratings

Composer:

Tabber:

Style:

Instrument:

Created: March 11, 2011 at 12:00 AM

                           Wagan Paradise - Lighty's Theme BASS TAB
              Composed by Yoshinori Kawamoto, Eriko Imura

                Tabbed by auriplane ([email protected])


I transcribed this on five-string, but then I went back and made a four-
string version.  I naturally assumed five would be better, because there's
a two-octave leap in part B, but I kind of like the four-string one better.
There's plenty of time to move up and down the neck.

Well, I included both here anyway! :-)  By the way, "rit." means slow down, 
and "a tempo" means play at the original speed.


                           FOUR-STRING VERSION

        Intro

G |----------------|--------3-------|----------------|
D |----3-------3---|----3-----------|----------------|
A |----------------|----------------|----------------|
E |----------------|----------------|----------------|

        Part A

G |----------------|----------------|----------------|--------5---3---|
D |3-------3-------|3-------7-------|--------5-------|----------------|
A |----------------|----------------|5---------------|3---------------|
E |----------------|----------------|----------------|----------------|


G |2---------------|2-------7---4---|5---------------|----------------|
D |----------------|----------------|--------5-------|3---------------|
A |--------5-------|----------------|------------3---|----3-----------|
E |----------------|----------------|----------------|--------1-------|

        Part B
                                                                       rit.
G |10--------------|10--------------|----------------|------2-5-3-----|----------------|
D |----------------|----------------|----------------|------------3---|------3-2-------|
A |----------------|--------8---7---|5---------------|----5-----------|----5-------3---|
E |------------1---|----------------|--------3-------|--3-----------3-|--3-------------|

        Part A'
   a tempo
G |----------------|----------------|----------------|--------5---3---|
D |3-------3-------|3-------7-------|--------5-------|----------------|
A |----------------|----------------|5---------------|3---------------|
E |----------------|----------------|----------------|----------------|


G |2---------------|2-------7---4---|5---------------|----------------|
D |----------------|----------------|--------5-------|3---------------|
A |--------5-------|----------------|------------3---|----3-----------|
E |----------------|----------------|----------------|--------1-------|






                           FIVE-STRING VERSION
        Intro

G |----------------|----------------|----------------|
D |----------------|--------8-------|----------------|
A |----8-------8---|----8-----------|----------------|
E |----------------|----------------|----------------|
B |----------------|----------------|----------------|

        Part A

G |----------------|----------------|----------------|--------5-------|
D |----------------|--------7-------|--------5-------|------------8---|
A |8-------8-------|8---------------|5---------------|----------------|
E |----------------|----------------|----------------|8---------------|
B |----------------|----------------|----------------|----------------|


G |----------------|--------7---4---|5---------------|----------------|
D |7---------------|7---------------|--------5-------|----------------|
A |--------5-------|----------------|----------------|8---------------|
E |----------------|----------------|------------8---|----8-----------|
B |----------------|----------------|----------------|--------6-------|

        Part B
                                                                       rit.
G |10--------------|10--------------|----------------|----------------|----------------|
D |----------------|----------------|----------------|------7-108-----|----------------|
A |----------------|--------8---7---|----------------|------------8---|------8-7-------|
E |----------------|----------------|10--------------|----10----------|----10------8---|
B |------------6---|----------------|--------8-------|--8-----------8-|--8-------------|

        Part A'
   a tempo
G |----------------|----------------|----------------|--------5-------|
D |----------------|--------7-------|--------5-------|------------8---|
A |8-------8-------|8---------------|5---------------|----------------|
E |----------------|----------------|----------------|8---------------|
B |----------------|----------------|----------------|----------------|


G |----------------|--------7---4---|5---------------|----------------|
D |7---------------|7---------------|--------5-------|----------------|
A |--------5-------|----------------|----------------|8---------------|
E |----------------|----------------|------------8---|----8-----------|
B |----------------|----------------|----------------|--------6-------|


        
Comments

No comments yet