Gametabs
Home
Tabs
Random

Presenting VVVVVV

Average rating: 5.000

1 ratings

Composer:

Tabber:

Style:

Instrument:

Created: June 11, 2013 at 12:00 AM

            VVVVVV
Presenting VVVVVV (Track 2 of 13)
Composed by Magnus "SoulEye" Pålsson
Arranged for guitar by Michael Achilles (Tortoise)
6-3-13

Standard Tuning

 4/4

   Q  E E H       Q  E E H       Q  E E H      Q  E E H
E|--------------|--------------|-------------|--------------|
B|--------------|--------------|-------------|--------------|
G|----2p0-------|--------------|----2p0------|----5p2-------|
D|-0------------|----3p2-------|-0-----------|-0------------|
A|--------------|-5------------|-------------|--------------|
E|--------------|--------------|-------------|--------------|


  Q  E E H       Q  E E H       Q  E E H       Q  E E Q  Q
|--------------|--------------|--------------|--------------|
|--------------|--------------|--------------|--------------|
|----2p0-------|--------------|----2p0-------|----5p2----0--|
|-0------------|----3p2-------|-0------------|-0------------|
|--------------|-5------------|--------------|--------------|
|--------------|--------------|--------------|--------------|


    Q  E Q.   E E   Q  E Q.   Q    Q  E Q.   E E   Q  E Q.   Q
||----------------|--------------|---------------|--------------||
||o---------------|--------------|---------------|-------------o||
||-----2p0--------|--------------|----2p0--------|----5p2----0--||
||--0-------------|----3p2-------|-0---------0-2-|-3------------||
||o-----------5p3-|-1---------3--|---------------|-------------o||
||----------------|--------------|---------------|--------------||

                                                          * Pause here, 2nd time 
    Q  E E Q  E E   Q  E E Q  Q    Q  E E Q  E E   Q  E E Q  Q
||----------------|--------------|---------------|----------------||
||o---------------|--------------|---------------|---------------o||
||-----2p0--------|--------------|----2p0--------|----5p2----0----||
||--0-------------|----3p2-------|-0---------0-2-|-3--------------||
||o-0---------5p3-|-1---------3--|-0-------------|-3-------------o||
||----------------|-1------------|---------------|----------------||


    Q  E E Q  E E   Q  E E Q  Q    Q  E E Q   E E    E E  E E Q  Q    4x
||-----5----------|----3---------|-3--5-----------|----8--------------||
||o----6----------|--------------|-5--6-----------|-11---10----------o||
||----------------|----3---------|----------------|--------------0----||
||-----7p5--------|----3-2-------|-0--7p5---------|------10-7---------||
||o-5---------5p3-|-1---------3--|-0------------7-|--8---------------o||
||--5-------------|-1------------|-----------10---|--8----------------||


  Q  E E Q  E E   Q  E E E E Q    Q  E E Q   E E    E E  E E Q  Q
|-----------0-1-|---------------|----------------|----8------------|
|--------3------|----------1----|----------------|-11---10---------|
|----2p0-2------|----3---3------|-2--------------|--------------0--|
|-0-------------|----3p2--------|-3--------------|------10-7-------|
|-0---------5-3-|-1----------3--|-5--0---------7-|--8--------------|
|---------------|-1-------------|------3----10---|--8--------------|


  Q  E E Q  E E   Q  E E E E Q    Q  E E Q   E E    E E  E E Q  Q
|-----------0-1-|---------------|----------------|----8------------|
|--------3------|--------1------|----------------|-11---10---------|
|----2p0-2------|----3----------|-2--------------|--------------0--|
|-0-------------|----3p2---5----|-3--------------|------10-7-------|
|-0---------5-3-|-1----------3--|-5--0---------7-|--8--------------|
|---------------|-1-------------|------3----10---|--8--------------|


                  |-3-| |-3-|   |-3-|
  Q  E E Q  E E   Q Q Q Q Q Q   Q Q Q  Q   E E    E E  E E Q  Q
|---------------|-------------|----------------|----8------------|
|---------------|-1-----------|----------------|-11---10---------|
|------2-3--5---|---3-2-2-0-0-|-0-2-2----------|--------------0--|
|-0-------------|---3-2-------|-3--------------|------10-7-------|
|-0---------5-3-|-1---------3-|-5-0----------7-|--8--------------|
|----5-3--------|-1-----------|-----3-----10---|--8--------------|


  Q  E E Q  Q    Q  E E Q  Q    Q  E E Q  Q    Q  E E Q  Q
|--------------|--------------|--------------|--------------|
|--------------|--------------|--------------|--------------|
|----2p0-------|--------------|----2p0-------|----5p2----0--|
|-0------------|----3p2-------|-0------------|-0------------|
|--------------|-5------------|--------------|--------------|
|--------------|--------------|--------------|--------------|


             |-3-|   |-3-| |-3-|          |-3-|
  Q  E E E E E E E   Q Q Q Q Q Q   Q  E E Q Q Q   Q  E E Q  Q
|----------0-1-0-1-|-------------|--------------|----------------|
|--------3---------|---------1---|--------------|-1--------------|
|----2-0-----------|---3-3-3---3-|-2--------0-2-|-3--2------0----|
|-0----------------|-----2-------|----0---3-----|-2----3---------|
|-0----------3-----|-1---------3-|------3-------|-3--------------|
|------------------|-1-----------|-1----------0-|----------------|


             |-3-|   |-3-| |-3-|              |--3--|
  Q  E E E E E E E   Q Q Q Q Q Q    Q   E  E  Q  Q  Q   E  E  E E Q  Q
|------------------|-----------8-|-----------13-12-10-|-8-----------------|
|--------3-5-6-5-6-|-------8-6---|-10-----------------|-------------------|
|----2-0-----------|-------------|--------------------|--------------0----|
|-0----------------|---8-8-----8-|-----12-10----------|-8h10--------------|
|-0----------3-----|-----7-------|--8-----------------|------12-8---------|
|------------------|-6---------8-|--------------------|-8-----------------|


             |-3-|   |-3-| |-3-|          |-3-|
  Q  E E E E E E E   Q Q Q Q Q Q   Q  E E Q Q Q   Q  E E Q  Q
|----------0-1-0-1-|-------------|--------------|----------------|
|--------3---------|---------1---|--------------|-1--------------|
|----2-0-----------|---3-3-3---3-|-2--------0-2-|-3--2------0----|
|-0----------------|-----2-------|----0---3-----|-2----3---------|
|-0----------3-----|-1---------3-|------3-------|-3--------------|
|------------------|-1-----------|-1----------0-|----------------|


             |-3-|   |-3-| |-3-|
  Q  E E E E E E E   Q Q Q Q Q Q    Q  E E Q  Q    Q  E E Q  Q
|------------------|-----------8-|---------------|---------------|
|--------3-5-6-5-6-|-------8-6---|-10------------|---------------|
|----2-0-----------|-------------|-------0-------|----2-0--------|
|-0----------------|---8-8-----8-|--0--7---------|-0---------0---|
|-0----------3-----|-----7-------|--0------------|-0-------------|
|------------------|-6---------8-|------------8--|---------------|


    W            W            W            W
|-------------|------------|------------|--------|
|-------------|------------|------------|--------|
|-------------|------------|------------|--------|
|-<12>--------|------------|-[3]--------|--------|
|-------------|-[1]--------|------------|-[3]----|
|-------------|------------|------------|--------|


               |-3-|   |-3-| |-3-|          |-3-|
    Q  E E E E E E E   Q Q Q Q Q Q   Q  E E Q Q Q   Q  E E Q  Q
||---------0-2-3-2-3-|-------------|--------------|---------------|
||o----0-------------|---------3---|-0----------0-|-3-------------|
||-------2-----------|---5-5-5---5-|--------0-2---|-5--4------2---|
||--2----------0-----|-----4-------|----2-0-------|-4----5--------|
||o-2----------------|-3---------5-|-2------------|-5-------------|
||-------------------|-3-----------|-3----------2-|---------------|


             |-3-|   |--3--|  |-3--|
  Q  E E E E E E E   Q  Q  Q  Q Q  Q
|--------0---------|--------------10-|
|----0-----7-8-7-8-|---------10-8----|
|------2-----------|-----------------|
|-2----------0-----|---10-10------10-|
|-2----------------|-------9---------|
|------------------|-8------------10-|


              |--3--|
   Q  E   E   Q  Q  Q    E  E  E  E Q  Q
|-----0------15-14-12-|-10-------------------||
|-12------------------|---------------------o||
|---------------------|----------------2-----||
|-------<12>----------|-10h12----------------||
|-10------------------|-------14-10---------o||
|---------------------|-10-------------------||


  Q  E E Q  E E   Q  E E Q  Q     Q   E  E Q  E E    E  E  E  E Q   Q
|----7----------|----5---------|------0-----------|----10--------------|
|----8----------|--------------|-10--12-----------|-13----12-------10--|
|---------------|----5---------|-11--12-----------|-11-------12--------|
|----9p7--------|----5-4----0--|--9-----12--------|--------------------|
|-7---------7p5-|-3------------|-10---------------|--------------------|
|-7-------------|-3------------|--------------7-8-|-10-----------------|


  Q  E E Q  E E   Q  E E Q  Q     Q   E  E Q  E E   Q  H    E E
|----7----------|----5---------|------0-----------|----5---------|
|----8----------|--------------|-10--12-----------|-----------7--|
|---------------|----5---------|-11--12-----------|--------------|
|----9p7--------|----5-4----0--|--9-----12--------|-0------------|
|-7---------7p5-|-3------------|-10-----------2-0-|-0------------|
|-7-------------|-3------------|------------------|--------------|
                                                    


  H..       E   H..       E   H..       E   H..
|-------------|-------------|-------------|--------|
|-----------7-|-----------7-|-----------7-|--------|
|-------------|-------------|-------------|--------|
|-------------|-------------|-------------|--------|
|-5-----------|-5-----------|-5-----------|-5------|
|-------------|-------------|-------------|--------|


Duration Legend
---------------
W - whole; H - half; Q - quarter; E - 8th; S - 16th; T - 32nd; X - 64th; a - acciaccatura
+ - note tied to previous; . - note dotted; .. - note double dotted
Uncapitalized letters represent notes that are staccato (1/2 duration)
Irregular groupings are notated above the duration line
Duration letters will always appear directly above the note/fret number it represents the
duration for.  Duration letters with no fret number below them represent rests.  Multi-
bar rests are notated in the form Wxn, where n is the number of bars to rest for.  Low
melody durations appear below the staff

Tablature Legend
----------------
 h   - hammer-on
 p   - pull-off
 b   - bend
 pb  - pre-bend
 r   - bend release (if no number after the r, then release immediately)
 /\  - slide into or out of (from/to "nowhere")
 s   - legato slide
 S   - shift slide
  - natural harmonic
[n]  - artificial harmonic
n(n) - tapped harmonic
 ~   - vibrato
 tr  - trill
 T   - tap
 TP  - trem. picking
 PM  - palm muting
\n/  - tremolo bar dip; n = amount to dip
 \n  - tremolo bar down
 n/  - tremolo bar up
/n\  - tremolo bar inverted dip
 =   - hold bend; also acts as connecting device for hammers/pulls
 <>  - volume swell (louder/softer)
 x   - on rhythm slash represents muted slash
 o   - on rhythm slash represents single note slash

Misc Legend
-----------
 |  - bar
||  - double bar
||o - repeat start
o|| - repeat end
*|  - double bar (ending)
 :  - bar (freetime)
 $  - Segno
 &  - Coda
Tempo markers -  = BPM(8/16=s8/s16), where s8 = swing 8ths, s16 = swing 16ths
        
Comments

@surreal (June 13, 2013 at 2:04 AM)

Great arrangement