Gametabs
Home
Tabs
Random

Sincerely

Average rating: No ratings

Composer:

Tabber:

Style:

Instrument:

Created: November 16, 2020 at 12:00 AM

            Title: Sincerely
SubTitle: Violet Evergarden
Artist: Cecil Chau (GuitarSVD)
Music: Shota Horie
Tempo = 68
Nylon Guitar

Legend
L - tied note
x - dead note
h - hammer on/pull off
b - bend
s - slide
~ - vibrato
g - ghost note
> - accentuated note
t - trill
M - palm mute
. - staccato
P - popping (bass)
S - slapping (bass)
+ - tapping
W - wide vibrato
< - fade in
w - whammy bar
= - tremolo picking
v - brush up
^ - brush down
V - pick stroke up
n - pick stroke down


E |--------0-----2-----5L----5-------------------------------------------------|
B |--3-----------------3L----3-----------3-------------------------------------|
G |-----------------------------------------------2--2--------0----------------|
D |----------------------------------------------------------------------------|
A |----------------------------------------------------------------------------|
D |----------------------------------------------------------------------------|


--0--2--3--2L-2-----0-------------------------------|
--------------------------2--------3--------2-------|
--------------------------2-----------------2-------|
----------------------------------------------------|
----------------------------------------------------|
----------------------------------------------------|


-----2--5--9L-9--10---------------------------------|
--3-----------------10------------------------------|
--------------------------4--------0----------------|
----------------------------------------------------|
----------------------------------------------------|
----------------------------------------------------|


----------------------------------------------------------|
--3-----------------------2L----------2-------------------|
-----------------------------------------------2--2--2----|
-----------------------------------------------------2----|
-----------------------------------------------------0----|
----------------------------------------------------------|


--0--------0L-0-----2--0L-0-----------------------------------------------------
--------3-----------------------3--3L-3--------------------0--------------------
-----------------------------------------------2--------0-----------------------
-----------------------------------------------------0-----------------------2--
--------------------------------------------------------------------------0-----
--------------------------------------------------5-----------------------------


--------------------|
--------------------|
2--2----------------|
--------------------|
--------------------|
--------------------|


--0--------0L-0--------0L-0-----2--2L-2-----------------------------------------
--------3-----------3--------------------------------------3--------------------
-----------------------------------------------2--------4-----------------------
-----------------------------------------------------4-----------------------0--
--------------------------------------------------2-----------------------------
--------------------------------------------------------------------------4-----


--------------------|
---2----------------|
2-------------------|
--------------------|
--------------------|
--------------------|


--------0-----2-----0L----0-----------------------------------------------------
--3-----------------------------3--3L-3-----------------------------------------
-----------------------------------------------2--------0L-0--------------------
-----------------------------------------------------0-----------------------2--
--------------------------------------------------------------------------0-----
--------------------------------------------------5-----------------------------


--------------------|
--------------------|
2L-2----------------|
--------------------|
--------------------|
--------------------|


-----------------0--2-----------2-----3-----5-----------------------------------
--3--------3L-3-----------------------------------------------------------------
--------------------------------------------------------4-----------------------
-----------------------------------------------------4-----------------------0--
--------------------------------------------------2-----------------------------
--------------------------------------------------------------------------4-----


--------------------|
--------------------|
2-----2-------------|
---0-----0L-0--0----|
--------------------|
--------------------|


--0--------0L-0-----2--0L-0-----------------------------------------------------
--------3-----------------------3--3L-3--------------------0--3h-0--------------
-----------------------------------------------2--------0-----------0-----------
-----------------------------------------------------0-----------------0-----2--
--------------------------------------------------------------------------0-----
--------------------------------------------------5-----------------------------


--------------------|
--------------------|
2L-2L-2--2----------|
------------2L-2----|
--------------------|
--------------------|


--0--------0L-0-----5--0L-0-----------------------------------------------------
--------3-----------------------3--3L-3--------------------2--------------------
-----------------------------------------------2--------4-----4-----------------
-----------------------------------------------------4-----------4-----------0--
--------------------------------------------------2-----------------2L-2--------
--------------------------------------------------------------------------4-----


--------------------|
--------------------|
---2L-2-------------|
2--------2--0L-0----|
--------------------|
--------------------|


--------0-----2-----3--5L-5-----2--0--------------------------------------------
--3-----------------------------3L-3-----3--------------------------------------
-----------------------------------------0--------------------------------------
-----------------------------------------------------0-----0-----0--------------
--------------------------------------------------------------------------0-----
--------------------------------------------------2-----------4-----------------


--------------------|
--------------------|
--------------------|
--------------------|
--------------------|
--------------------|


--10----10-9L-9-----7--5L-5--------------0--2-----------------------------------
--------------------------------3--3L-3--------------------0--------0-----------
--------------------------------------------------------0--------0-----0--------
-----------------------------------------------------0--------0--------------2--
--------------------------------------------------------------------------0-----
--------------------------------------------------5-----------------------------


--------------------|
------------3L-3----|
2L-2-----0----------|
------2-------------|
--------------------|
--------------------|


-----0--------------------2-----3--2-----0--------------------------------------
--3--------------------3--------------------3-----------------------------------
--------2--------------------------------------------------------2--------------
-----------0L-0-----------------------------------------------------0--------2--
--------------------------------------------------2L----------2-----------0-----
--------------------------------------------------------------------------------


--------------------|
--------------------|
2L-2L-2-------------|
--------------------|
--------------------|
--------------------|


-----0-----------0--2--5L-5-----2--0--------------------------------------------
--3-----------3--------------------------3--3-----------------------------------
--------2-----------------------------------------------------------------------
-----------0-----------------------------------------------------------------2--
--------------------------------------------------------------------------0-----
--------------------------------------------------5-----------------------------


--------------------|
--------------------|
2L-2L-2-------------|
--------------------|
--------------------|
--------------------|


-----0--------------------0-----------------------------------------------------
--3--------------------3-----3--2-----------------------------------------------
--------2--------------------------2L-2--0-----------------------2--------------
-----------0L-0-----------------------------4L-4--------------------0--------2L-
--------------------------------------------------2L----------2-----------0-----
--------------------------------------------------------------------------------


--------------------|
--------------------|
--------------------|
2L----2-------------|
--------------------|
--------------------|


--10----10-9L-9-----7--5L-5-----0--0L-0--------0--------------------------------
-----------------------------------------------------------0--------0-----------
--------------------------------------------------------0--------0-----0--------
-----------------------------------------------------0--------0--------------2--
--------------------------------------------------------------------------0-----
--------------------------------------------------5-----------------------------


--------------------|
------------0L-0----|
2L-2-----2----------|
------2-------------|
--------------------|
--------------------|


--9-----7--9--------10-10L---10----------------0--------------------------------
--------------------------------------------3-----------7L-7-----7--------------
-----------------------------------------------------9--------9--------------7--
--------------------------------------------------------------------------------
--------------------------------------------------------------------------------
--------------------------------------------------8-----------------------9-----


---10L10------------|--2-----3--2--------0--------------------------5----------|
7-------------------|-----------------------3L----3--------------3-----3-------|
--------------------|-----------------------------------------2--------0--2----|
--------------------|----------------------------------------------------------|
--------------------|----------------------------------------------------------|
--------------------|----------------------------------------------------------|


--5-----3--3-----1--------1--------3--3-------------------------|
--3--------------1--------3-----------2-------------------------|
--2-----------------------2-------------------------------------|
--------------------------------------------------0-------------|
-----------------------------------------------------3--1--0----|
----------------------------------------------------------------|


--1-----3-----5-----8L----8-------------------------------------------------|
--3-----3-----6-----5L----5-----8--6L-6--------3----------------------------|
--2-----------------5L----5-------------------------------------------------|
--------------------------------------------------------0-------------------|
-----------------------------------------------------------0--------0-------|
--------------------------------------------------0-------------------------|


--1--------1-----3--5L----5-----------3-------------------------------------|
--------3-------------------------------------------------------------------|
--------------------------------------0-----------------3L-3----------------|
-----------------------------------------------------3----------------------|
--------------------------------------------------1-------------------------|
--------------------------------------------------------------3-----2-------|


--1-----3-----5-----8L----8-------------------------------------------------|
--3-----3-----6-----5L----5-----8--6L-6--------3----------------------------|
--2-----------------5L----5-------------------------------------------------|
--------------------------------------------------------0-------------------|
-----------------------------------------------------------0--------0-------|
--------------------------------------------------0-------------------------|


--1-----5--3-----1--1L----1-----------0-------------------------------------|
----------------------------------------------------------------------------|
--------------------------------------0-----------------3L-3----------------|
-----------------------------------------------------3----------------------|
--------------------------------------------------1-------------------------|
--------------------------------------------------------------3-----2-------|


--1-----3-----5-----8L----8--------------------1----------------------------|
--3-----3-----6-----5L----5-----8--6L-6-------------------------------------|
--2-----------------5L----5-------------------------------------------------|
--------------------------------------------------------0-------------------|
-----------------------------------------------------------0--------0-------|
--------------------------------------------------0-------------------------|


--3-----1--3-----6L-5L6L--6-----------3--------1----------------------------|
--------------------------------------2-------------------------------------|
--------------------------------------2-----------------3L-3----------------|
-----------------------------------------------------3----------------------|
--------------------------------------------------1-----------0-------------|
----------------------------------------------------------------------------|


--1-----0--1--------10-8L----8----------------------------------|
--3--------3-----------10----------------------1----------------|
--2-----------------------------10-10---------------------------|
-----------------------------------------------------0----------|
--------------------------------------------------------0-------|
--------------------------------------------------0-------------|


--3-----5--3--------1--1L----1-----------------3----------|
----------------------------------------------------------|
----------------------------------------------------------|
----------------------------------------------------------|
--------------------------------------------------3-------|
-----------------------------------------------------3----|


--1-----0--1--------10-8L----8--------------------------------------------------
-----------------------------------------------1--3L----------3--------118------
--------------------------------10-10----------------------------------10-------
--------------------------------------------------------------------------------
--------------------------------------------------------------------------------
--------------------------------------------------------------------------------


------8-------------|
--------------------|
--------------------|
--------------------|
--------------------|
--------------------|


--3-----5--3--------1--1L----1----------------------------------------------|
--------------------------------------------------1--------------------3----|
--------------------------------------------------------------------3-------|
-----------------------------------------------------------------0----------|
--------------------------------------------------------------1-------------|
----------------------------------------------------------------------------|


--------8--13-13L-----------|--13---||
-----11---------------------|-------||
--10------------------------|-------||
----------------------------|-------||
----------------------------|-------||
----------------------------|-------||


        
Comments

No comments yet